The Clash

The Clash - Red Angel Dragnet bass tab

RED ANGEL DRAGNET by THE CLASH. Album: Combat rock(1982)

Tuning: 445Hz!!!!!

# intro, bridge # # verse1 # # verse2 #

G:|------------------------------| G:|-------------------|------------------|

D:|------------------------------| D:|------------33-2---|-----------33-2---|

A:|-5-3-------5/----5-3------5/--| A:|----3535--5-----0--|---355---5-----0--|

E:|------5-33-----------5-33-----| E:|-/35-----3---------|-35-----3---------|

# chorus #

G:|---------------------------------|

D:|---------------------------2-00--|

A:|----------33-3-------------------|

E:|1/33-1/33--------1/33-1/33-------|

# bridge2 # # riff1 # 3:09

G:|-----------------------------------------| G:|------------------|

D:|----------32-------32-------------33-2---| D:|------------------|

A:|---3535/------5-5--------3535---5-----0--| A:|---355---5--------|

E:|-35--------------------35------3---------| E:|-35-----3--66556--|

Structure of the song:

intro 1x

verse1 1x

verse2 7x

chorus 2x

verse2 8x

chorus 2x

bridge 1x

bridge2 1x

verse2 5x

chorus 2x

bridge 1x

verse2 11x

riff1 1x

verse2 'till the end

Tabbed by Paukovics Gergő 2003.08.07. n-o-f-x@freemail.hu

Taken from The BassMasta -- http://www.tabs-database.com

Get this song at:  amazon.com sheetmusicplus.com

Share your thoughts

0 Comments found