The Clash

The Clash - Radio Clash bass tab

Very Easy and funky Song, :)

Intro

D|-----------|---------

G|-----------|---------

A|-------7---|---------

E|-0-3-7---8-|-888753--

Main riff

D|------------------|---------------|

G|(7)---------------|---------------|

A|---------7-755557-|-------7-755557|

E|---0-3-7----------|-0-3-7---------|

Get this song at:  amazon.com sheetmusicplus.com

Share your thoughts

0 Comments found