The Clash

The Clash - Protex Blue guitar tab

Tabbed by Hunter Beauchamp

Song: Protex Blue UK Version

Artist: The Clash

Standard Tuning

Intro Guitar 1 6x

e|-----------------------|

B|-----------------------|

G|-----------------------|

D|-----------------------|

A|-----------------------|

E|---0h1-1-X-1-X-1-X-1---|

Intro Guitar 2 4x

e|---0h1---|

B|---0h1---| (note: come in after guitar 1

G|---------| does his part 2x)

D|---------|

A|---------|

E|---------|

Verse Guitar 2 4x

e|-----2-2-----7---5---|

B|-----3-3-----8---6---|

G|---------------------|

D|---------------------|

A|---------------------|

E|---------------------|

letring ..... ....

Chorus Guitar 1 1x

e|--------------------------------------------------------------|

B|--------------------------------------------------------------|

G|-----3--3----------3--3---------------------------------------|

D|-----3--3---3--3---3--3---3--3---2--2---3--3----2--2---3--3---|

A|-----1--1---3--3---1--1---3--3---2--2---3--3----2--2---3--3---|

E|------------1--1----------1--1---0--0---1--1----0--0---1--1---|

Chorus Guitar 2 1x

e|---2--2~7--7----2--2~7--7----0--0h1--1----0--0h1--3--|

B|---3--3~8--8----3--3~8--8----0--0h1--1----0--0h1--3--|

G|-----------------------------------------------------|

D|-----------------------------------------------------|

A|-----------------------------------------------------|

E|-----------------------------------------------------|

Bridge Guitar 1 1x

e|-----------------------------------|

B|-----------------------------------|

G|-----------------------------------|

D|---5-5-7-5-5-5-7-5-5-5-7-5-5-5-7---|

A|---5-5-7-5-5-5-7-5-5-5-7-5-5-5-7---|

E|-----------------------------------|

Verse Guitar 2 4x

e|-----2-2-----7---5---|

B|-----3-3-----8---6---|

G|---------------------|

D|---------------------|

A|---------------------|

E|---------------------|

letring ..... ....

Chorus Guitar 1 1x

e|--------------------------------------------------------------|

B|--------------------------------------------------------------|

G|-----3--3----------3--3---------------------------------------|

D|-----3--3---3--3---3--3---3--3---2--2---3--3----2--2---3--3---|

A|-----1--1---3--3---1--1---3--3---2--2---3--3----2--2---3--3---|

E|------------1--1----------1--1---0--0---1--1----0--0---1--1---|

Chorus Guitar 2 1x

e|---2--2~7--7----2--2~7--7----0--0h1--1----0--0h1--3--|

B|---3--3~8--8----3--3~8--8----0--0h1--1----0--0h1--3--|

G|-----------------------------------------------------|

D|-----------------------------------------------------|

A|-----------------------------------------------------|

E|-----------------------------------------------------|

Bridge Guitar 1 1x

e|-----------------------------------|

B|-----------------------------------|

G|-----------------------------------|

D|---5-5-7-5-5-5-7-5-5-5-7-5-5-5-7---|

A|---5-5-7-5-5-5-7-5-5-5-7-5-5-5-7---|

E|-----------------------------------|

Interlude Guitar 1 6x

e|-----------------------|

B|-----------------------|

G|-----------------------|

D|-----------------------|

A|-----------------------|

E|---0h1-1-X-1-X-1-X-1---|

Interlude Guitar 2 4x

e|---0h1---|

B|---0h1---| (note: come in after guitar 1

G|---------| does his part 2x)

D|---------|

A|---------|

E|---------|

Solo Guitar 1 1x

e|----------------------------15---|

B|---8------6------8~~~~14~~~~-----|

G|------7-7---7-7------------------|

D|---------------------------------|

A|---------------------------------|

E|---------------------------------|

Chorus Guitar 1 1x

e|--------------------------------|

B|--------------------------------|

G|--------------------------------|

D|---2--2---3--3----2--2---3--3---|

A|---2--2---3--3----2--2---3--3---|

E|---0--0---1--1----0--0---1--1---|

Chorus Guitar 2 1x

e|---0--0h1--1----0--0h1--3--|

B|---0--0h1--1----0--0h1--3--|

G|---------------------------|

D|---------------------------|

A|---------------------------|

E|---------------------------|

Bridge Guitar 1 1x

e|-----------------------------------|

B|-----------------------------------|

G|-----------------------------------|

D|---5-5-7-5-5-5-7-5-5-5-7-5-5-5-7---|

A|---5-5-7-5-5-5-7-5-5-5-7-5-5-5-7---|

E|-----------------------------------|

Verse Guitar 2 4x

e|-----2-2-----7---5---|

B|-----3-3-----8---6---|

G|---------------------|

D|---------------------|

A|---------------------|

E|---------------------|

letring ..... ....

Chorus Guitar 1 1x

e|--------------------------------------------------------------|

B|--------------------------------------------------------------|

G|-----3--3----------3--3---------------------------------------|

D|-----3--3---3--3---3--3---3--3---2--2---3--3----2--2---3--3---|

A|-----1--1---3--3---1--1---3--3---2--2---3--3----2--2---3--3---|

E|------------1--1----------1--1---0--0---1--1----0--0---1--1---|

Chorus Guitar 2 1x

e|---2--2~7--7----2--2~7--7----0--0h1--1----0--0h1--3--|

B|---3--3~8--8----3--3~8--8----0--0h1--1----0--0h1--3--|

G|-----------------------------------------------------|

D|-----------------------------------------------------|

A|-----------------------------------------------------|

E|-----------------------------------------------------|

Outro Guitar 1 1x

e|--------------------------------|

B|--------------------------------|

G|--------------------------------|

D|---2--2---3--3----2--2---3--3---|

A|---2--2---3--3----2--2---3--3---|

E|---0--0---1--1----0--0---1--1---|

Outro Guitar 2 1x

e|---0--0h1--1----0--0h1--3--|

B|---0--0h1--1----0--0h1--3--|

G|---------------------------|

D|---------------------------|

A|---------------------------|

E|---------------------------|

Sorry, energizedandhectic, but this is the UK version, not the US.

Get this song at:  amazon.com sheetmusicplus.com

Share your thoughts

0 Comments found