The Clash

The Clash - Pressure Drop bass tab

"pressure drop" by the clash

here's the main riff:

----------------------------------------------

----------------6--9-9-9---4--7-7-7-----------

----4--7-7-7--7----------5------------4--7-7-7

--5---------------------------------5---------

here's the second riff:

------------------

------------------

------7---5-------

--5-----------5---

this song's really easy. the only thing you have to watch out for is

on the second riff, there are a couple of times when u have to bend

the string when you play 5th fret A string. if you don't, it sounds

like shit.

--jose

Get this song at:  amazon.com sheetmusicplus.com

Share your thoughts

0 Comments found