The Clash

The Clash - Police And Thieves Solo guitar tab

The Clash - Police & Thieves(solo)

The Clash (UK & US)

` = hold note

E|------7-7-5-3---0-3-5--0-0----------------------------------------|

B|--5---------------------------------------------------------------|

G|------------------------------------------------------------------|

D|------------------------------------------------------------------|

A|------------------------------------------------------------------|

E|------------------------------------------------------------------|

E|------7-7-5-3---0-------------------------------------------------|

B|--5---------------3-5--3h5r3--------------------------------------|

G|------------------------------------------------------------------|

D|------------------------------------------------------------------|

A|------------------------------------------------------------------|

E|------------------------------------------------------------------|

E|------7-7-5-3---0--8-8-7-5--3-5-7`----7-5-------------------------|

B|--5----------------------------------------8/10-10----12--15--12--|

G|------------------------------------------------------------------|

D|------------------------------------------------------------------|

A|------------------------------------------------------------------|

E|------------------------------------------------------------------|

Get this song at:  amazon.com sheetmusicplus.com

Share your thoughts

0 Comments found