The Clash

The Clash - Paul's Tune bass tab

this is easiest if you know the basic tune of guns of brixton.

paul's tune is on london calling 25th anniversary legacy edition.

basically its just them screwing around with songs. this is

a fun warm up to play with friends or by yourself... have fun!

G:--------------------|------------------|

D:--------4444-------*|*----------------*|

A:--2--5-------5--2--*|*--2--0------0--2*| X4

E:--------------------|--------3333------|

then it'll switch to:

G:-------------2--4-|----------------|

D:-------4444------*|*--------------*|

A:--2--5-----------*|*2--0------0--2*|

E:------------------|-----3333-------|

then back:

G:--------------------|------------------|

D:--------4444-------*|*----------------*|

A:--2--5-------5--2--*|*--2--0------0--2*|

E:--------------------|--------3333------|

G:--------------------|------------------|

D:--------4444-------*|*----------------*|

A:--2--5-------5--2--*|*--2--0------0--2*|

E:--------------------|--------3333------|

and this is how it ends :-D

G:-------------2--4-|----------------|

D:-------4444------*|*--------------*|

A:--2--5-----------*|*2--0------0--2*|

E:------------------|-----3333-------|

Get this song at:  amazon.com sheetmusicplus.com

Share your thoughts

0 Comments found