The Clash

The Clash - Magnificent Seven bass tab

Intro - played REALLY fast.

Repeated once or twice later in the song.

G||-----------------------|

D||--7-5------------------|

A||------7-5--------------|

E||-----------8-5-3-5-5---|

OR

G||----------------------|

D||--7-5-----------------|

A||------7-5-3-----------|

E||------------5-3-5-5---|

which is probably easier. Or you could try;

G||--2-0-----------------|

D||------2-0-------------|

A||----------3-0---0-0---|

E||--------------3-------|

so whichever you like.

Main

Fun-kay part

G||----------------5---|

D||--------7-7-5-7-----|

A||--5--5--------------|

E||--------------------|

Slower after-part

G||-----------------------|

D||-----------------------|

A||--3>5-5---5-5-3--5--3--|

E||-----------------------|

Fantastic song and although there may be the odd digression from the above, I'm *** sure

it's right.

Taken from The BassMasta -- http://www.tabs-database.com

Get this song at:  amazon.com sheetmusicplus.com

Share your thoughts

0 Comments found