The Clash

The Clash - Magnifecent Seven bass tab

G:--2-0----------------------------------------------------------

D:-------2-0-----------------------------------------------------

A:-------------3-0---0-------------------------------------------

E:------------------3--------------------------------------------

G:------------------5--------------------------------------------

D:--------7-7-5-7------------------------------------------------

A:--0-0------------------5-5----55-3-55-3-0----------------------

E:---------------------------------------------------------------

Repeat the second half through the whole song. That’s about it.

Taken from The BassMasta -- http://www.tabs-database.com

Get this song at:  amazon.com sheetmusicplus.com

Share your thoughts

0 Comments found