The Clash

The Clash - Londons Burning bass tab

Band-The Clash

Song-London's Burning

Album-The Clash (track 8)

standard tuning

Intro x2 Chorus x4

G|------------|------------------------|

D|------------|------------------------|

A|------------|-------------3-3---5----|

E|--33333333--|-3-3---111--------------|

Verse x3

G|-----------------------|-----|

D|-----------------------|-----|

A|-------------3-3---1-1-|-----|

E|--3-3---1-1------------|--3--|

Chorus x4

G|------------------------|

D|------------------------|

A|-------------3-3---5----|

E|-3-3---111--------------|

Verse x3

G|-----------------------|-----|

D|-----------------------|-----|

A|-------------3-3---1-1-|-----|

E|--3-3---1-1------------|--3--|

Chorus x4

G|------------------------|

D|------------------------|

A|-------------3-3---5----|

E|-3-3---111--------------|

Verse x3

G|-----------------------|-----|

D|-----------------------|-----|

A|-------------3-3---1-1-|-----|

E|--3-3---1-1------------|--3--|

Chorus x4

G|------------------------|

D|------------------------|

A|-------------3-3---5----|

E|-3-3---111--------------|

At the end play... x8

G|---------------------------|-----|

D|---------------------------|-----|

A|--------------5555--7777---|-----|

E|--5555--3333---------------|--3--|

G|------------|

D|------------|

A|------------|

E|--33333333--|

Taken from The BassMasta -- http://www.tabs-database.com

Get this song at:  amazon.com sheetmusicplus.com

Share your thoughts

0 Comments found