The Clash

The Clash - London Calling bass tab

G|---------------------------------)-------------------------------)

D|---------------------10----------)-------------------------------) X2

A|--27-------10-7-10---------------)---27--------10-7-10------------)

E|---------------------------------)------------------------8------)

Verse

G|-----------------------------------------------------------------)

D|-----------------------------------------------------------------)

A|---7---7---R-----------------8---8---R---------------3---3-------)

E|----------------7---5-6-7---------------7---5-6-7----------------)

G|-------------------------------------------)

D|-------------------------------------------) X4

A|------------------3---3---R----------------)

E|-----7---5-6-7-----------------7-----------)

Chorus

G|----------------------------------------------------------)

D|----------------------------------------------------------) X3

A|-----7----7----7-----9------10----10----10----------------)

E|-------------------------------------------------10-------)

G|------------------------------------------------------------)

D|------------------------------------------------------------)

A|----7----7----7----7----------------------------------------)

E|-------------------------10--9--8--7------10--9--8--7-------)

Outro

G)-------)

D)-------)

A)---7---)

E)-------)

Get this song at:  amazon.com sheetmusicplus.com

Share your thoughts

0 Comments found