The Clash

The Clash - Lets Go Crazy bass tab

Song: Let's Go Crazy

Band: The Clash

Album: Sandanista!

tabbed by: Shawn

Part 1

G:---------------------------------------------------------------

D:-------------------6-9-----9-6---------------------------------

A:----4-7----4-7--7-------7--------------------------------------

E:-5------5------------------------------------------------------

Part 2

G:---------------------------------------------------------------

D:---------------------------------------------------------------

A:-----------4-7----4-7------------------------------------------

E:-9--7-5-5------5-----------------------------------------------

Get this song at:  amazon.com sheetmusicplus.com

Share your thoughts

0 Comments found