The Clash

The Clash - Koka Kola bass tab

The clash

Koka kola

Intro

G|---12-----------9------------|

D|--------12---9-----9--7--5---|

A|-----------------------------|

E|-----------------------------|

verse

G|----------------------------------------|

D|---5---5---5---5---5---5---5-------33---|

A|-----5---5---5---5---5---5---5--5-------| x2

E|----------------------------------------|

Chorus

G|--------------------------------------------|

D|--------------------------5-55--------------|

A|------2-5-----5--5----2-5------5--5---2-5---|

E|---3-3---5--5------3-3-------------3-3----5-|

Intro

G|---12-----------9------------|

D|--------12---9-----9--7--5---|

A|-----------------------------|

E|-----------------------------|

verse

G|------------------------------------------|

D|---5---5---5---5---5---5---5-------3-3----|

A|-----5---5---5---5---5---5---5--5---------| X2

E|------------------------------------------|

Chorus

G|--------------------------------------------|

D|--------------------------5-55--------------|

A|------2-5-----5--5----2-5------5--5---2-5---|

E|---3-3---5--5------3-3-------------3-3----5-|

Intro

G|---12-----------9------------|

D|--------12---9-----9--7--5---|

A|-----------------------------|

E|-----------------------------|

verse

G|-------------------------------------------------|

D|---5-----------5-----------5-----------5---------|

A|---------5-----------5-----------5-----------5---|

E|-------------------------------------------------|

Chorus

G|--------------------------------------------|

D|--------------------------5-55--------------|

A|------2-5-----5--5----2-5------5--5---2-5---|

E|---3-3---5--5------3-3-------------3-3----5-|

Intro

G|---12-----------9------------|

D|--------12---9-----9--7--5---|

A|-----------------------------|

E|-----------------------------|

*Note* this riff starts at the

12 not 1

Bridge

G|----------------------------------------|

D|---5---5---5---5---5---5---5-------33---|

A|-----5---5---5---5---5---5---5--5-------| X2

E|----------------------------------------|

Chorus

G|--------------------------------------------|

D|--------------------------5-55--------------|

A|------2-5-----5--5----2-5------5--5---2-5---|

E|---3-3---5--5------3-3-------------3-3----5-|

Intro

G|---12-----------9------------|

D|--------12---9-----9--7--5---|

A|-----------------------------|

E|-----------------------------|

End

G|-------|

D|-------|

A|-------|

E|---3---|

Taken from the BassMasta ~ http://www.tabs-database.com

Get this song at:  amazon.com sheetmusicplus.com

Share your thoughts

0 Comments found