The Clash

The Clash - Know Your Rights guitar tab

Band -The Clash

Song -Know Your Rights(Track 1)

Album -Combat Rock

My Band were covering this for a gig with a scottish clash tribute band, so i worked it

out,some of it may be a little out but its pretty accurate.

Tabbed by Chris

Intro

e|--4---7-6---||

B|--4---7-6---||

G|--5---8-7---||

D|--6---9-8---||

A|--6---9-8---||

E|--4---7-6---||

Verse

e|--x-4-4-x-4--||

B|--x-4-4-x-4--||

G|--x-5-5-x-5--||

D|--x-6-6-x-6--||

A|--x-----x----||

E|--x-----x----||

Rhythm is something like this.

Chorus

e|--------------------------------------7-6--|

B|--------------------------------------7-6--|

G|--------------------------------------8-7--|

D|-------9-8--|

A|---7-6-7-4-6-2-/-4-4---7-6-7-4-6-4----9-8--|

E|--------------------------------------7-6--|

play the verse again then

e|--2--0----2---7-6--||

B|--2--0----2---7-6--|| i aint wrote out the

G|--3--1----3---8-7--|| rhythm but its simple

D|--4--2----4---9-8--||

A|--4--2----4---9-8--||

E|--2--0----0---7-6--||

solo

e|---------------------------------------------------------------------||

B|---------------------------------------------------------------------||

G|------8--11-8-8-------8-11-8-8-------8/11-13-13/8--6-4-/-8--8-4------||

D|--6/9-------------6/9------------6/9------------------------------6--||

A|---------------------------------------------------------------------||

E|---------------------------------------------------------------------||

e|------------------||

B|--------------9---||

G|------9--6/9------||

D|--6/9-------------||

A|------------------||

E|------------------||

Outro

e|---------------------------------------------------------------------------||

B|---------------------------------------------------------------------------||

G|----------------------------------------4-3-4-3-4-3-4-3-4-3-4-3-4-3--------||

D|---------------------------------------------------------------------6-6---||

A|--2-1-2-1-2-1-2-1-2-1-2-1-2-1-2-1------------------------------------------||

E|----------------------------------4-4--------------------------------------||

Hey thats it basically.Rate and Comment This please

Get this song at:  amazon.com sheetmusicplus.com

Share your thoughts

0 Comments found