The Clash

The Clash - Know Your Rights bass tab

VERSE I

|--------------------| x6

|--------------------|

|-------646------646-|

|-444444---444444----|

BREAK I

|-----------------------------------------------------|

|-----------------------------------------------------|

|-76746244-767464--------646--------------------------|

|----------------76444444---4444444200000000/22222276-|

VERSE II

|-------------------------| x5

|-------------------------|

|-------646---------646---|

|-444444------444444------|

BREAK II

|------------------------------------------------------|

|------------------------------------------------------|

|-76746244-767464--------646---------------------------|

|----------------76444444---4444444200000000/22222276--|

SOLO PART

|----------------------| x5

|----------------------|

|-------646------646---|

|-444444---444444------|

BREAK III

|------------------------------------------------------|

|------------------------------------------------------|

|-76746244-767464--------646---------------------------|

|----------------76444444---4444444200000000/22222276--|

VERSE III

|----------------------| x10

|----------------------|

|-------646------646---|

|-444444---444444------|

nothing is played by the bass from "hah!"(2'42") till after

"wellll..." (3'07") then it goes:

ENDING PART

|-------------------------------------------------------------

|------------------------------------------------------------- ...

|-646-------66-------646-------646-------646444444-44444646---

|----444444---444444----444444----444444----------4-----------

----------------------------------------------------------------------|

------------------------54--------------------------------------------|

-------6-------646---------------646-------646-------646--------------|

-444444--444444---444444---444444----444444----444444---444...(fades)-|

during all the verses/solo some notes are 'skipped' or variations are

played,

i tried capturing the moments, though i could have missed some....

/----------------------------------------

| ____ ____ |

| ( `--' .-' _T_T_T_T_ |

| |8| O O |||||||||||||||||||[o o o o/ |

| (__,--.____ `~~~`--' |

| from the desk of eric morgan.. |

| yabaheatah123@yahoo.com |

Get this song at:  amazon.com sheetmusicplus.com

Share your thoughts

0 Comments found