The Clash

The Clash - Kingston Advice bass tab

"Kingston Advice" by The Clash (from the album "Sandinista !")

==============================================================

Transcribed by Gilles Velay (gvelay@free.fr)

Notations :

e : 8th h : half q : quarter

w : whole

R : rest

Tempo 128

Riff 1a

-------

q e e e e q q e e e e q e e e e h q e e h

G-|-----------------|-----------------|-----------------|-----------------|

D-|-R---------------|-R---------------|-----------------|-R---------------|

A-|-----------------|-----3-2-3-4-5---|-----------------|-----5-4-3-------|

E-|-----3-0-3-0-3---|-----------------|-3-0-3-0-3-------|-----------------|

Riff 1b

-------

e e e e h q e e e e q e e e e h q e e h

G-|-----------------|-----------------|-----------------|-----------------|

D-|-----------------|-R---------------|-----------------|-R---------------|

A-|-----------------|-----3-2-3-4-5---|-----------------|-----5-4-3-------|

E-|-3-0-3-0-3-------|-----------------|-3-0-3-0-3-------|-----------------|

Riff 2

------

e e e e e q+e q e e e e q e e e e e q+e q e e h

G-|-----------------|-----------------|-----------------|-----------------|

D-|-----------------|-R---------------|-----------------|-R---------------|

A-|-3-0-3-0-3-0-----|-----5-7-8-7-5---|-3-0-3-0-3-0-----|-----7-5-5-------|

E-|-----------------|-----------------|-----------------|-----------------|

e e e e e q+e q e e e e q h+q q w

G-|-----------------|-----------------|---------|----------------|

D-|-----------------|-R---------------|---------|----------------|

A-|-3-0-3-0-3-0-----|-----5-7-8-7-5---|-3-----3-|----------------|

E-|-----------------|-----------------|---------|-3--------------|

Riff 3

------

e e e e h w w w

G-|-----------------|----------------|----------------|----------------|

D-|-----------------|-R--------------|-R--------------|-R--------------|

A-|-----------------|----------------|----------------|----------------|

E-|-3-0-3-0-3-------|----------------|----------------|----------------|

w w

G-|----------------|----------------|

D-|-R--------------|-R--------------|

A-|----------------|----------------|

E-|----------------|----------------|

Riff 4a

-------

e e e e h q e e e e q

G-|-----------------|----------10----9--------|

D-|-----------------|-R-----------------------|

A-|-----------------|-------8-----7-----5-----|

E-|-3-0-3-0-3-------|-------------------------|

Riff 4b

-------

e e e e h e e e e q e e e e e e h

G-|-----------------|----10----9--------------|-----------------|

D-|-----------------|-------------------------|-----------------|

A-|-----------------|-8-----7-----5-----7--5--|-----------------|

E-|-3-0-3-0-3-------|-------------------------|-3-0-3-0-3-------|

q e e e e q

G-|-----------------|

D-|-R---------------|

A-|-----3-2-3-4-5---|

E-|-----------------|

-----------------

|Song Structure |

-----------------

Verse 1

No bass on first 8 bars

Riff 1a

Riff 1b

Chorus

Riff 2

Verse 2

Riff 1b (x 4)

Chorus

Riff 2

Outtro

Riff 3

Riff 4a

Riff 4b (ad lib)

----------------------------------------------------------------------

| Tab generated with GnTabber (http://gvelay.free.fr/tools/gntabber) |

| on Sat Sep 10 22:06:09 2005 |

----------------------------------------------------------------------

Get this song at:  amazon.com sheetmusicplus.com

Share your thoughts

0 Comments found