The Clash

The Clash - Junco Partner bass tab

Junco Partner Bass Tablature

by the clash

Tabbed by Matt Schild

batmatt@holly.colostate.edu

This song is really simple, so here goes...

The intro is mostly guitar with a bit of bass...

G-------------------

D-------------------

A-3-------3---------

E---5-5-5-----------

The rest of the song is this line, repeated tons of times:

G-----------------------------------------------------------

D-----------------------------------------------------------

A--3------------------3------------------3------------------

E----5-5-5-5-5-5-3-5----5-5-5-5-5-5-3-5----5-5-5-5-5-5-3-5--

G----------------------------------------------------------

D----------------------------------------------------------

A----------------------------------------------------------

E-5--1-1-1-1-1-1-0-1---------------------------------------

Get this song at:  amazon.com sheetmusicplus.com

Share your thoughts

0 Comments found