The Clash

The Clash - Julie's Been Working For The Drug Squad bass tab

1st Tab it's pretty easy if you play it with the song. hope you

like it.

Intro:

G|----------------------------------------------------

D|----------------------------------------------------

A|--4-57---4-57---4-57---4-57---4-57--4-57------4-57--

E|5------5------5-----45------5------5-----5-55-----45

1st verse

G|------------------------------------------------------------------------------------

D|-------------------------------4-57---4-57-----------------4-57---4-57--------------

A|--4-57---4-57--47-47----4-57-5------5--------4-57---4-57-5------5--------4-57---4-57

E|5------5------5--5--445--------------------5------5--------------------5------5-----

chorus

G|-----------------

D|-----------------

A|--4-57------4-57-

E|5------55-5-----5

other verses

G|--------------------------------------------------------------------------------------------------------------------

D|----------------------------------------------------------4-57---4-57-----------------6-89---6-89---4-57---4-57-----

A|--4-57---4-57--47--47---4-57---4-57--4-57--47-47----4-57-5------5--------4-57---4-57-7------7------5------5----------

E|5------5------5--5---45------5------5-----5--5--445--------------------5------5--------------------------------------

Bridge

G|--------------------------------------------------------

D|-------4-57---4-57-----------------4-57---4-57----------

A|--24-5------5--------4-57---4-57-5------5--------4-577~-

E|5------------------5------5--------------------5--------

Solo Backing

G|---------------------------------------------------------------------------------------------------------------------

D|-----------------------------------------------------------4-57---4-57----------------6-89---6-89---4-57---4-57------

A|--4-57---4-57--47--47---4-57---4-57--4-57--47-47----4-57-5------5--------4-57---4-57-7------7------5------5----------

E|5------5------5--5---45------5------5------5--5--445--------------------5------5-------------------------------------

Outro

G|--------------------------------------------------------

D|-------4-57---4-57-----------------4-57---4-57----------

A|--24-5------5--------4-57---4-57-5------5--------4-577~-

E|5------------------5------5--------------------5--------

G|-----------------------------------------------------------

D|-----------------------------------------------------------

A|--4-57---4-57--47--47---4-57---4-57---4-57---4-57----------

E|5------5------5--5---45------5------5------5------5-4-5----

Order:

Intro

1st verse

Chorus

Other Verse

Chorus

Bridge

Solo Backing

Chorus

Other Verse

Chorus

Other verse

Chorus

Outro

Get this song at:  amazon.com sheetmusicplus.com

Share your thoughts

0 Comments found