The Clash

The Clash - Janie Jones guitar tab

Band:the clash

Song:Janie Jones

Tabbed by:Alex

I Love this song and I could only find the bass tab to it,

so I tabbed the guitar tab out.I think it sounds correct.The only problem

is getting the rhythm to it, but it is pretty easy to do.

Enjoy

Chorus

e|---------------------------------------------|

B|---------------------------------------------|

G|---7-----------------------------------------|

D|---7-----x3----------------------------------|

A|---5-----------------------------------------|

E|---------------------------------------------|

He?s in love with rock ?n? roll, woah

He?s in love with getting stoned, woah

He?s in love with Jaine Jones, woah

e|-----------------------------------------------------|

B|-----------------------------------------------------|

G|---7----7------7-7-7-7-7-7-7-------------------------| strum to the

D|---7----7------7-7-7-7-7-7-7-------------------------| rhythm of the

A|---5----5------5-5-5-5-5-5-5-------------------------| song

E|-----------------------------------------------------|

He don?t like his boring job no?

Extended Chorus

e|---------------------------------------------------------|

B|---------------------------------------------------------|

G|--7--7-7-7-7-7-7-7-7-7-7-7-7-7-7-7-7-7-7-7-7-------------|

D|--7--7-7-7-7-7-7-7-7-7-7-7-7-7-7-7-7-7-7-7-7-------------|

A|--5--5-5-5-5-5-5-5-5-5-5-5-5-5-5-5-5-5-5-5-5-------------|

E|---------------------------------------------------------|

He?s in love...........

Verse(part 1)

e|------------------------------------------------------|

B|------------------------------------------------------|

G|--5-5-5---5-5-5-5-5-5-5-5-5-5-5-5-5-------------------| strum to the

D|--5-5-5---5-5-5-5-5-5-5-5-5-5-5-5-5-------------------| rhythm of the

A|--3-3-3---3-3-3-3-3-3-3-3-3-3-3-3-3-------------------| song

E|------------------------------------------------------|

(part 2)

e|-----------------------------------------------------|

B|-----------------------------------------------------|

G|--5-5-5---5-5-5-5-5-5-5-5-5-5-5-5-5------------------| same rhythm as

D|--5-5-5---5-5-5-5-5-5-5-5-5-5-5-5-5--5-5-5-5-5-5-5---| bass

A|--3-3-3---3-3-3-3-3-3-3-3-3-3-3-3-3--5-5-5-5-5-5-5---|

E|-------------------------------------3-3-3-3-3-3-3---|

Finish

e|--------|

B|--------|

G|--------|

D|---5----| Let ring

A|---5----|

E|---3----|

Songflow:

Chorus

Extended Chorus x4

Verse(part 1)

Verse(part 2)

Verse(part 1)

Verse(part 2)

Chorus

Verse(part 1)

Verse(part 2)

Verse(part 1)

Verse(part 2

Chorus

Verse(part 1)

Verse(part 2)

Verse(part 1)

Verse(part 2

Chorus

Verse(part 1) x5 at the of the fifth time play the finish

please e-mail comments to me at buttmuncher567@yahoo.com

Get this song at:  amazon.com sheetmusicplus.com

Share your thoughts

0 Comments found