The Clash

The Clash - Jail Guitar Doors bass tab

Artist: The Clash

Title: Jail Guitar Doors

Album: The Clash (U.S. Version)

This is a great song by The Only Band That Matters. It's also my first tab but I play it all

the time and I'm pretty sure it's accurate.

Intro/Chorus

G-|-----------------|----------------|----------------|----------------|

D-|-----------------|----------------|----------------|----------------|

A-|-7--7----------7-|-7--7---------5-|-7--7---------7-|-7--7-----------|

E-|---------5-5-4---|--------5-5-4---|--------5-5-4---|--------5-------|

Verse

G-|-----------------------------------|------------------------------|

D-|-----------------------------------|------------------------------|

A-|-77777777--------------------------|-77777777-------------------7-|

E-|----------77777777-555555555555555-|----------44444444-77777777---|

Chorus II (no singing)

G-|-----------------|----------------|----------------|----------------|

D-|-----------------|----------------|----------------|----------------|

A-|-7--7----------7-|-7--7---------7-|-7--7---------7-|-7--7-----------|

E-|---------5-5-4---|--------5-5-4---|--------5-5-4---|--------5-------|

Bridge (rest for most of it, play this right before the singing starts again)

G-|-------------------|

D-|-------------------|

A-|-77777777----------|

E-|----------55555555-|

Outro Pt. 1

G-|-------------------|(x7)

D-|-------------------|

A-|-7777777-----------|

E-|---------7777-5555-|

Outro Pt. 2

G-|--------------------------------|

D-|--------------------------------|

A-|-77777777------------------7--7-|

E-|----------7777777-44444444------|

Order:

Intro

Verse

Chorus

Verse

Chorus II

Verse

Chorus

Bridge

Outro Pt. 1

Outro Pt. 2

R.I.P. Joe Strummer

Taken from The BassMasta -- http://www.tabs-database.com

Get this song at:  amazon.com sheetmusicplus.com

Share your thoughts

0 Comments found