The Clash

The Clash - Im So Bored With The Usa guitar tab

The Clash- Im so Bored With The U.S.A

This song is awesome. This is how I play the song. If you have any questions, comments,

or corrections. email me at guitarhero1234@hotmail.com

Mick adds some little riffs and slides to the song. I got one which is part of the chorus.

w/Distortion

e|----------------

b|---------------- Joe Strummer RIP

g|----------------

d|-------------9-9

a|-------7-7------

E|-0-0-0----00----

Verse

e|-x---x

b|-x---x

g|-x-9-x Mute in between strumming

d|-x-9-x

a|-x-7-x

E|-x-7-x

e|-------

b|-------

g|-6-6-6-

d|-7-7-7-

a|-7-7-7-

E|-5-5-5-

Chorus

e|---------------------------

b|-2-2-2-2-2-----------------

g|-0-0-0-0-0-2-2-2-2---------

d|-2-2-2-2-2-2-2-2-2-7~7~7~7

a|-3-3-3-3-3-0-0-0-0---------

E|---------------------------

Outro

e|---------------

b|---------------

g|-9-9-9--------- x4

d|-9-9-9/14-14-14

a|-7-7-7/12-12-12

E|---------------

Ending Chord

e|-----

b|-----

g|-9---

d|-9---

a|-7---

E|-7---

Get this song at:  amazon.com sheetmusicplus.com

Share your thoughts

0 Comments found