The Clash

The Clash - I'm Not Down bass tab

Im Not Down

The Clash

London Calling (1979)

redsox25914@yahoo.com or

rhcpfan2112@yahoo.com

Intro

G|------------------------

D|------------------------

A|-4-7-6-4----------------

E|-----------4-7-6-7~~~7--x2

listen for timing

-----------------------------------------------|

-------------------------------------------2-2-|

-2-2222-0-0000---------------5-5555-4-4444-----|

---------------4-4444-2-2222-------------------|

Verse

G|--------------------------------------------------------------

D|-----------------4-2--2-4-2-----------------------------------

A|----------------------------4-444-4-4-444-4-5-555-5-5-555-5-4-

E|-5-555-5-5-555-5----------------------------------------------

------------------------------------------------------------|

-----------------4-2--2-4-2---------------------------------|

----------------------------4-444-4-4-444-4-5-555-5-5-555-5-|

-5-555-5-5-555-5--------------------------------------------|

Chorus

G|-------------------------------------------

D|-------------------------------------------

A|-----------2-4---0-4-0----------0-2----0-2-

E|-5----0-5--------------2---1-2-------------

-------------------------------------------

-------------------------------------------

----------2-4---0-4-0----------0-2~~~~~~~--

-5----0-5-------------2---1-2------------5-

-----------------------------------------------|

-------------------------------------------2-2-|

-2-2222-0-0000---------------5-5555-4-4444-----|

---------------4-4444-2-2222-------------------|

Verse

Beat changes

|---------------------------------------------

|---------------4-2--2-4-2--------------------

|--------------------------4-4--4-4--5-5--5-5-

|-5-5-5-5-5-5---------------------------------

---------------------------------------------|

-----------4-2--2-4-2------------------------|

----------------------4-4--4-4--5-5--5-5-----|

-5-5--5-5------------------------------------|

Chorus

back to normal:

|-------------------------------------------

|-------------------------------------------

|-----------2-4---0-4-0----------0-2----0-2-

|-5----0-5--------------2---1-2-------------

-------------------------------------------

-------------------------------------------

----------2-4---0-4-0----------0-2~~~~~~~--

-5----0-5-------------2---1-2------------5-

-----------------------------------------------|

-------------------------------------------2-2-|

-2-2222-0-0000---------------5-5555-4-4444-----|

---------------4-4444-2-2222-------------------|

Bridge

Listen for Timing

G|-------------------------------

D|------2-4-----------6-9--------

A|----------4-----7-9-----10-7-5-

E|-5--5--------------------------

|---------------------------------|

|---------------------------------|

|-5-5-0-5-5-5-0-4-4-0-4-4-4-0-2-2-|

|---------------------------------|

|-------------------------------

|------2-4-----------6-9--------

|----------4-----7-9-----10-7-5-

|-5--5--------------------------

|---------------------------------------|

|-----------------------------------2-2-|

|-5-5-0-5-5-5-0-4-4-0-4-4-4-0-2-2-------|

|---------------------------------------|

Verse

G|-------------------------------------------------------------

D|-----------------4-2--2-4-2----------------------------------

A|----------------------------4-444-4-4-444-4-5-555-5-5-555-5-4

E|-5-555-5-5-555-5---------------------------------------------

|------------------------------------------------------------

|-----------------4-2--2-4-2---------------------------------

|----------------------------4-444-4-4-444-4-5-555-5-5-555-5-

|-5-555-5-5-555-5--------------------------------------------

Chorus

G|-------------------------------------------

D|-------------------------------------------

A|-----------2-4---0-4-0----------0-2----0-2-

E|-5----0-5--------------2---1-2-------------

|-------------------------------------------

|-------------------------------------------

|----------2-4---0-4-0----------0-2~~~~~~~--

|-5----0-5-------------2---1-2------------5-

|-----------------------------------------------

|-------------------------------------------2-2-

|-2-2222-0-0000---------------5-5555-4-4444-----

|---------------4-4444-2-2222-------------------

End Chorus

G|---------------------------------|

D|---------------------------------|

A|---------------------------------|

E|-2-5-4-2-2222-2-2222-0-0000-0-00-|x4

|--------------------------|

|-----------------22222222-|

|-------------0-4----------|

|-2-5-4-2-2-2--------------|x3

outro

G|----------------------

D|-------------2~~~~~~~-

A|---------0-4----------

E|-2-2-2-2--------------

End Note A

If theres a problem, email, me, ill fix it.

Pce,

Derrik

Get this song at:  amazon.com sheetmusicplus.com

Share your thoughts

0 Comments found