The Clash

The Clash - Hate And War guitar tab

Artist: The Clash

Song: Hate and War

Written by: Strummer/Jones

Tabbed by: Jamie (l4m3bot@hotmail.com)

Intro/Chorus:

e------------------

B------------------

G--5-------5-------

D--5---5---5----3--

A--3---5---3----3--

E------3--------1--

Verse:

(And if I close my eyes...)

e-----------------------------

B-----------------------------

G--10---10-10-10--------------

D--10---10-10-10---10---105-- repeat this how ever many times

A---8----8--8--8---10---105--

E-------------------8----83--

(Hate, Hate, Hate...)

e------

B------

G------

D--10--

A--10--

E---8--

Bridge:

(I'm gonna stay in the city...)

e---------------------------------------------------|

B---------------------------------------------------|

G--10-10-10-10-10-10-10-10-10-10-10-10-10-10-10-10--|

D--10-10-10-10-10-10-10-10-10-10-10-10-10-10-10-10--|

A---8--8--8--8--8--8--8--8--8--8--8--8--8--8--8--8--|

E---------------------------------------------------|

1 e + a 2 e + a 3 e + a 4 e + a

e--------------------|---------------------

B--------------------|---------------------

G--------------------|--10---9---7---5/12--

D--10---10----5---5--|--10---9---7---5/12--

A--10---10----5---5--|---8---7---5---3/-8--

E---8----8----3---3--|---------------------

(Hate and War, I hate Englishmen...)

e---------------------------

B---------------------------

G--5-------5---10--9--7--5--

D--5---5---5---10--9--7--5--

A--3---5---3----8--7--5--3--

E------3--------------------

Get this song at:  amazon.com sheetmusicplus.com

Share your thoughts

0 Comments found