The Clash

The Clash - Guns Of Brixton guitar tab

-------------------------------------------------------------------------------

GUNS OF BRIXTON - The Clash

-------------------------------------------------------------------------------

Tabbed by: dead_kennedy77

Email: dima_zador@yahoo.com

Tuning: Standard

This is the bulk of a song and it should be right. I don't know what the order is,

though. Mute strumming down, and then strum the chord going up (like reggae or whatever).

Part A

F#m Am F#m Am

e|----x-9----x-9----x-7---x-7---x-9----x-9----x-7---x-7---------------------|

B|----x-10---x-10---x-7---x-7---x-10---x-10---x-7---x-7---------------------|

G|----x-11---x-11---x-7---x-7---x-11---x-11---x-7---x-7---------------------|

D|----x-11---x-11---x-9---x-9---x-11---x-11---x-9---x-9---------------------|

A|----x-9----x-9----x-9---x-9---x-9----x-9----x-9---x-9---------------------|

E|------------------x-7---x-7-----------------x-7---x-7---------------------|

G Am F#m Am

e|----x-3---x-3---x-7---x-7---x-9----x-9----x-7---x-7-----------------------|

B|----x-3---x-3---x-7---x-7---x-10---x-10---x-7---x-7-----------------------|

G|----x-4---x-4---x-7---x-7---x-11---x-11---x-7---x-7-----------------------|

D|----x-5---x-5---x-9---x-9---x-11---x-11---x-9---x-9-----------------------|

A|----x-5---x-5---x-9---x-9---x-9----x-9----x-9---x-9-----------------------|

E|----x-3---x-3---x-7---x-7-----------------x-7---x-7-----------------------|

Part B

F#m Am F#m Am G Am F#m Am

e|----9~~---7~~---9~~---7~~---3~~---7~~---9~~---7~~-------------------------|

B|----10~~--7~~---10~~--7~~---3~~---7~~---10~~--7~~-------------------------|

G|----11~~--7~~---11~~--7~~---4~~---7~~---11~~--7~~-------------------------|

D|----11~~--9~~---11~~--9~~---5~~---9~~---11~~--9~~-------------------------|

A|----9~~---9~~---9~~---9~~---5~~---9~~---9~~---9~~-------------------------|

E|----------7~~---------7~~---3~~---7~~---------7~~-------------------------|

For Part B you'll need a tremolo bar to play it right, but you can just shake your guitar

if you don't have one.

Listen to the song to figure out how many times each part repeats and were it goes and

stuff. Email me for whatever.

=============================================================================

Get this song at:  amazon.com sheetmusicplus.com

Share your thoughts

0 Comments found