The Clash

The Clash - Groovy Times bass tab

The Clash - "Groovy Times"

from the "Cost Of Living EP"

Intro (slide from 5 to 9 then 9 to 7) play 3X

G:-------------------------------|

D:-------------------------------|

A:-------------------------------|

E:-0--0--00-4--4--44-555---9-777-|

G:-----------------------------|

D:-----------------------------|

A:-----------------------------|

E:-0--0--00-4--4--44-555---777-|

No Bass Until after “Cause the houswives are all singin”

(Let the 7 ring out)

Groovy times are here again

G:----------------------------|

D:----------------------------|

A:----------------------------|

E:--------7777------33---55-7-|

Verse play 3X

G:---------------------------------------------------------------|

D:-------7-5-4---------------------------------------------------|

A:-5--5---------5-------7-5-4----------9-7-6----------5-3-2------|

E:-------------------5--5--------5-7--7---------7-3--3---------3-|

G:----------------------------------------------------|

D:-------7-5-4----------------------------------------|

A:-5--5---------5-------7-5-4-------------------------|

E:-------------------5--5--------5--7-7-7-7-3-3-5-5-7-|

Chorus

G:----------------------------------------------------------|

D:----------------------------------------------------------|

A:-6--5--3--1--6--5--3--1--6--5--3--1--7--5--0--------------|

E:--------------------------------------------------------3-|

Guitar Solo and Verse 2 play 5X

G:---------------------------------------------------------------|

D:-------7-5-4---------------------------------------------------|

A:-5--5---------5-------7-5-4----------9-7-6----------5-3-2------|

E:-------------------5--5--------5-7--7---------7-3--3---------3-|

G:---------------------------------------------------|

D:-------7-5-4---------------------------------------|

A:-5--5--------5-------7-5-4-------------------------|

E:------------------5--5--------5--7-7-7-7-3-3-5-5-7-|

Chorus

G:--------------------------------------------|

D:--------------------------------------------|

A:-6--5--3--1--6--5--3--1--7--5--0------------|

E:------------------------------------------3-|

Outro: play until it fades out

G:----------------------------------------------------|

D:----------------------------------------------------|

A:-6--5--3--1--6--5--3--1--6--5--3--1--7--5--0--------|

E:-------------------------------------------------3--|

any comments etc e-mail: out_of_36@hotmail.com

Taken from The BassMasta -- http://www.tabs-database.com

Get this song at:  amazon.com sheetmusicplus.com

Share your thoughts

0 Comments found