The Clash

The Clash - Ghetto Defendant bass tab

Verse -

G| -----------------|-----------------|------7-------9--|

D| -----------------|-----------------|----7-------9----|

A| -3-3-3-3-0-------|-3-3-3-3-0-0-----|--5-------7------|

E| -----------------|-----------------|-----------------|

* * *G| -----------------|-----------------|-----------------|

* * *D| -----------------|-----------------|-----------------|

* * *A| -3-3-3-3-0-------|-3-3-3-3-0-0-----|-3-3-3-3-0-------|

* * *E| -----------------|-----------------|-----------------|

G| ------7-------9--|* * *

D| ----7-------9----|* * *

A| --5-------7------|* * *

E| -----------------|* * *

* * *REPEAT THIS RIFF THREE MORE TIMES, THEN PLAY...* * *

G| -----------------|

D| -----------------|

A| -3-3-3-3-0-------|

E| -----------------|

Chorus -

G| -----------------0---|-------7-----9-------|

D| ---------------2-----|-----7-----9---------|

A| -3-2-0-0---0-3-----0-|-0-5-----7-----3-2-0-|

E| ---------------------|---------------------|

G| -------0---------0---|-------7-----9-------|

D| -----2---------2-----|-----7-----9---------|

A| -0-3----0-0--3-----0-|-0-5-----7-----3-2-0-|

E| ---------------------|---------------------|

G| -----------------0---|-------7-----9-------|

D| ---------------2-----|-----7-----9---------|

A| -3-2-0-0---0-3-----0-|-0-5-----7-----3-2-0-|

E| ---------------------|---------------------|

G| -------0---------0---|-------7-----9-------|

D| -----2---------2-----|-----7-----9---------|

A| -0-3----0-0--3-----0-|-0-5-----7-----3-2-0-|

E| ---------------------|---------------------|

Get this song at:  amazon.com sheetmusicplus.com

Share your thoughts

0 Comments found