The Clash

The Clash - Garageland bass tab

THE CLASH- GARAGELAND

ARTIST: The Clash

TABBED BY: Fecker 8

BASSIST: Paul Simonon

INTRO

G:|----------------|----------------|----------------|

D:|----------------|----------------|----------------|

A:|3h5-------------|3h5-------------|5h7-------------|

E:|----------------|----------------|----------------|

VERSE

G:|----------------|--------22222222|

D:|----------------|----------------|x2

A:|--------55555555|22222222--------|

E:|55555555--------|----------------|

PRE-CHORUS

G:|----------------|----------------|

D:|----------------|----------------|

A:|5-5-5-5-44-4-44-|2-2-2-----------|

E:|----------------|------5-5-------|

G:|----------------|----------------|----------------|

D:|----------------|----------------|----------------|

A:|5555555544444444|2222222222222235|----------------|

E:|----------------|----------------|55555555--------|

CHORUS

G:|----------------|----------------|

D:|----------------|---4h7----------|x2

A:|------------2244|-5------4--22222|

E:|5-5-55-5-555----|----------------|

G:|----------------|----------------|

D:|---4h7----------|2-0-------------|

A:|-5------44442222|----4-----------|

E:|----------------|----------------|

VERSE

G:|----------------|--------22222222|

D:|----------------|----------------|x2

A:|--------55555555|22222222--------|

E:|55555555--------|----------------|

PRE-CHORUS

G:|----------------|----------------|

D:|----------------|----------------|

A:|5-5-5-5-44-4-44-|2-2-2-----------|

E:|----------------|------5-5-------|

G:|----------------|----------------|----------------|

D:|----------------|----------------|----------------|

A:|5555555544444444|2222222222222235|----------------|

E:|----------------|----------------|55555555--------|

CHORUS

G:|----------------|----------------|

D:|----------------|---4h7----------|x2

A:|------------2244|-5------4--22222|

E:|5-5-55-5-555----|----------------|

G:|----------------|----------------|

D:|---4h7----------|2-0-------------|

A:|-5------44442222|----4-----------|

E:|----------------|----------------|

VERSE

G:|----------------|--------22222222|

D:|----------------|----------------|x2

A:|--------55555555|22222222--------|

E:|55555555--------|----------------|

PRE-CHORUS

G:|----------------|----------------|

D:|----------------|----------------|

A:|5-5-5-5-44-4-44-|2-2-2-----------|

E:|----------------|------5-5-------|

G:|----------------|----------------|----------------|

D:|----------------|----------------|----------------|

A:|5555555544444444|2222222222222235|----------------|

E:|----------------|----------------|55555555--------|

CHORUS

G:|----------------|----------------|

D:|----------------|---4h7----------|x2

A:|------------2244|-5------4--22222|

E:|5-5-55-5-555----|----------------|

G:|----------------|----------------|

D:|---4h7----------|---2-0----------|

A:|-5------44442222|-------4--------|

E:|----------------|----------------|

BRIDGE

Play this four times

G:|----------------|

D:|----------------|x3

A:|----------------|

E:|5555555577775777|

G:|----------------|

D:|----------------|

A:|7777777755555555|

E:|----------------|

OUTRO

G:|----------------|

D:|----------------|x3

A:|7777777755555555|

E:|----------------|

G:|----------------|

D:|----------------| *let last note ring

A:|----------------|

E:|5*--------------|

If there are any problems with the tab, email me at fecker.8@gmail.com

Get this song at:  amazon.com sheetmusicplus.com

Share your thoughts

0 Comments found