The Clash

The Clash - Deny bass tab

This song is really easy but the bass line goes pretty fast.

The beginning is just

G----------

D----------

A----------

E-555555555

Then it goes into the chorus which is

G------------------------------

D------------------------------

A--55-33--1h222-1h22-1h222-1h22

E------------------------------

The verse goes pretty fast and it is

G--------------------------------------66-77-99----

D---------------88-99-11---66-77-88-99-------------

A---44-55-66-77----------55------------------------

E-55-----------------------------------------------

The part that goes after 2 verses is just

G-------------

D-------------

A-2*----------

E----3*-------

The outro is

G---------------------------

D---------------------------

A-5555-3333-2222222222-2-3-4

E---------------------------

Key

h= hammer

*= let ring

Tabbed by Mike

Get this song at:  amazon.com sheetmusicplus.com

Share your thoughts

0 Comments found