The Clash

The Clash - Crooked Beat bass tab

G----------------------------------------------------------------------------------

D----------------------------------------------------------------------------------

A-----2-5-7-5757-------------------------------------------------------------------

E--33------------------------------------------------------------------------------

G----------------------------------------------------------------------------------

D----------------------------------------------------------------------------------

A--55------------------------------------------------------------------------------

E-----5-7-5757---------------------------------------------------------------------

G----------------------------------------------------------------------------------

D-----2-5-7-5757-------------------------------------------------------------------

A--33------------------------------------------------------------------------------

E----------------------------------------------------------------------------------

Those are the three main riffs. You play the first one four times,

then the second twice, then the first four times, then the last

one twice, and repeat.

Get this song at:  amazon.com sheetmusicplus.com

Share your thoughts

0 Comments found