The Clash

The Clash - Complete Control guitar tab

The Clash/ Complete Control

key:

p = pull off

h = hammer on

^ = bend string

( )= play while bent

Intro/ Chorus

e--------------------------------------

b------------------------------10p9-9--

g--9-9-9--9--9--------9-9-9--9--9---9--

d--9-9-9--9--9------9-9-9-9--9--9---9--

a--7-7-7--7--7-7h11-7-7-7-7--7--7---7--

e--------------------------------------

Verse #1

e---9-------5-------7------------

b---9-------5-------7-------9----

g---9-------6-------8-------9----

d---11------7-------9-------9----

a---11------7-------9-------7----

e---9-------5-------7-------7----

Solo

e------12-12-----12-----12-12-----12-----12-------12--------------

b--/12-12-12-14^-12-14^-12-12-14^-12-14^-12-14^-12--12------------

g-----------------------------------------------------14-12h13----

d--------------------------------------------------------------14-

a-----------------------------------------------------------------

e-----------------------------------------------------------------

e----------------------------19-----------------------------19----

b-------------15-15/17---19^---19^--19^-(19)-(19)-17--19^-----19^-

g--14-12h14p12----------------------------------------------------

d-----------------------------------------------------------------

a-----------------------------------------------------------------

e-----------------------------------------------------------------

e----------------

b--19^-----------

g----------------

d--------12h14---

a----------------

e----------------

Bridge #1

e-------------9------------------7---

b----7-----5--9--------10-----5--7---

g---8-----6---9------11------6---8---

d--9-----7----11---12-------7----9---

a-------------11-----------------9---

e-------------9------------------7---

Bridge #2

e------------------------------------------------------------

b------------------------------------------------------------

g---14p13--14p13--14p13--14p13--14p13--14p13--14p13--14p13---

d--------14-----14-----14-----14-----14-----14-----14-----14-

a------------------------------------------------------------

e------------------------------------------------------------

e--------------------------

b--------------------------

g---14p13--14p13--14p13----

d--------14-----14-----14--

a--------------------------

e--------------------------

thats it.it is very easy!!!!!!!

Get this song at:  amazon.com sheetmusicplus.com

Share your thoughts

0 Comments found