The Clash

The Clash - Complete Cntrol bass tab

intro by guitar, starts after 1st verse

h=hammer on.

verse, listen and you can get the jist.

G--------------------- ------------------------------

D------------9-------- ------------------------------

A--77777777h9----7777- x2 ---4-444----7--4-444----------

E------------7777----- -------5-7----------5-7-777---

solo

G----------------------- -------------------------

D------------9---------- -------------------------

A--77777777h9-------7777 x2 --4-------------4--------

E--------------7777----- -------5----3-----5-7-777

youre my guitar hero

bridge and outro. play till the end.

G-----------------

D-----------------

A-----------5----7

E--7--5--4----5---

structure: intro (not played on bass) verse 1 (not played) verse

2 solo verse 3 bridge

outro

listen to tyhe record to get the timing. hope you like the riff.

please give good reviews.

Get this song at:  amazon.com sheetmusicplus.com

Share your thoughts

0 Comments found