The Clash

The Clash - Clash City Rockers (right) guitar tab

The Clash

Clash City Rockers

I was listening to this song in the morning and i was trying to make out the strumming

and i got it, and it sounds amazing!!!!!!!

m=mute

Tabbed by Nick Koleits

(make sure you get the stumming right for the inro and it sounds really good)

Intro

E-------------------------------------------------------------------------

B-------------------------------------------------------------------------

G-------------------------------------------------------------------------

D--9---7-7---------------------------9-9--------------------------------- x 1

A--7---5-5--7---5-5---9---7-7---9---7-7----------------------------------

E------------5---3-3---7---5-5---7---------------------------------------

Verse

E------------------------------------------------------------------------

B------------------------------------------------------------------------

G------------------------------------------------------------------------

D--9-9---7-7----------------------------------9-9-----------------------

A--7-7---5-5--7-7---5-5---9-9---7-7----9-9---7-7------------------------

E--------------5-5---3-3---7-7---5-5----7-7------------------------------

E------------------------------------------------------------------------

B------------------------------------------------------------------------

G------------------------------------------------------------------------

D--9-9---7-7----------------------------------9-9-----------------------

A--7-7---5-5--7-7---5-5---9-9---7-7----9-9---7-7------------------------

E--------------5-5---3-3---7-7---5-5----7-7------------------------------

E------------------------------------------------------------------------

B------------------------------------------------------------------------

G------------------------------------------------------------------------

D--9-9---7-7----------------------------------9-9-----------------------

A--7-7---5-5--7-7---5-5---9-9---7-7----9-9---7-7------------------------

E--------------5-5---3-3---7-7---5-5----7-7------------------------------

E------------------------------------------------------------------------

B------------------------------------------------------------------------

G------------------------------------------------------------------------

D--9-9---7-7----------------------------------9-9-----------------------

A--7-7---5-5--7-7---5-5---9-9---7-7----9-9---7-7------------------------

E--------------5-5---3-3---7-7---5-5----7-7------------------------------

Chorus

E------------------------------------------------------------------------

B------------------------------------------------------------------------

G------------------------------------------------------------------------

D--9-9-9-9-9-9----7-7-7-7-7-7---------------------9-9---5-5--9-9-------

A--7-7-7-7-7-7----5-5-5-5-5-5----7-7-7-7-7-7------7-7---7-7--7-7------

E---------------------------------5-5-5-5-5-5---------------------------x2

m m m m m m

E------------------------------------------------------------------------

B------------------------------------------------------------------------

G------------------------------------------------------------------------

D--9-9---7-7----------------------------------9-9-----------------------

A--7-7---5-5--7-7---5-5---9-9---7-7----9-9---7-7------------------------

E--------------5-5---3-3---7-7---5-5----7-7------------------------------x 2

Chorus

E------------------------------------------------------------------------

B------------------------------------------------------------------------

G------------------------------------------------------------------------

D--9-9-9-9-9-9----7-7-7-7-7-7---------------------9-9---5-5--9-9-------

A--7-7-7-7-7-7----5-5-5-5-5-5----7-7-7-7-7-7------7-7---7-7--7-7------

E---------------------------------5-5-5-5-5-5---------------------------x2

m m m m m m

Solo Ill add this in later

E------------------------------------------------------------------------

B------------------------------------------------------------------------

G------------------------------------------------------------------------

D--9-9---7-7----------------------------------9-9-----------------------

A--7-7---5-5--7-7---5-5---9-9---7-7----9-9---7-7------------------------

E--------------5-5---3-3---7-7---5-5----7-7------------------------------

Outro

Verse

E------------------------------------------------------------------------

B------------------------------------------------------------------------

G------------------------------------------------------------------------

D--9-9---7-7----------------------------------9-9-----------------------

A--7-7---5-5--7-7---5-5---9-9---7-7----9-9---7-7------------------------

E--------------5-5---3-3---7-7---5-5----7-7------------------------------

m m m m m m m m m m m m m m m m

E------------------------------------------------------------------------

B------------------------------------------------------------------------

G------------------------------------------------------------------------

D----9-9-9-9-9-9-9-9-9-9------------------------------------------------x2

A----7-7-7-7-7-7-7-7-7-7------------------------------------------------

E------------------------------------------------------------------------

Thats all it is, im trying to get the solo done now, it will be in there soon.

Please rate my tab

Thanks, Nick

Get this song at:  amazon.com sheetmusicplus.com

Share your thoughts

0 Comments found