The Clash

The Clash - Clash City Rocker guitar tab

THis is an awsome song, by the Clash, one of the greatest punk bands out there, and I give

all the credit to them. This songs really awsome and pretty easy to play. Good luck, have

fun with it, and rock on.

Intro/Verse/Chorus (Power Chords, Distorted)

|--------------------------------------------------

|--------------------------------------------------

|-99--77----------------------99--------------------

|-99--77--77--55--99--77--99--99--------------------

|-77--55--77--55--99--77--99--77-------------------

|---------55--33--77--55--77------------------------

Bridge (Power Chords, Distorted)

|------------------------------

|-------------------------------

|-6----6-4----4-2----99------9--

|-6----6-4----2-2----99--99--9--

|-4----4-2----2-0----77--99--7--

|------------------------77-----

Thats about it. Like I said, easy but awsome song. Rock on.

Get this song at:  amazon.com sheetmusicplus.com

Share your thoughts

0 Comments found