The Clash

The Clash - City Of The Dead Live guitar tab

-----------------------------------------------------------------------------

The Clash - City Of The Dead (Live)

----------------------------------------------------------------------------

Tabbed by: N.Coughlan

This is City of the dead off the live album "live from here to eternity"

This song rocks.

Tuning: Standard

Intro:

{Play 2 times}

|------------------------|-----------------------------------------|

|----------12-15---------|----------12--15b--15--15b--15--12----12-|

|-12-12-14-------12~-----|-12-12-14--------------------------14----|

|------------------------|-----------------------------------------|

|------------------------|-----------------------------------------|

|------------------------|-----------------------------------------|

Verse:

G F

This is the City of the dead

e|-----------------------------------|

B|-----------------------------------|

G|-----------------------------------|

D|---------------------3-------------|

A|-------2--3-------------3----------|

E|---3------------1------------------|

G F

As we lie side by side in bed

e|-----------------------------------|

B|-----------------------------------|

G|-----------------------------------|

D|-----------------------------------|

A|---3---2---------2---3--5----------|

E|---------3-------------------------|

G F

I'd do something else instead

e|-----------------------------------|

B|-----------------------------------|

G|-----------------------------------|

D|---------------------3-------------|

A|-------2--3-------------3----------|

E|---3------------1------------------|

G F

But its the city of the dead

e|-----------------------------------|

B|-----------------------------------|

G|-----------------------------------|

D|-----------------------------------|

A|---3---2---------2---3--5----------|

E|---------3-------------------------|

C G

We went out kicking around

F C

But you got drunk and and fallen down

C G

An' I wished I could be like you

F Em G

With the soho river drinking me down

e|-----------------------|

B|------------12---------|

G|---12---14------12-----|

D|-----------------------|

A|-----------------------|

E|-----------------------|

Then back to the start of the verse.

With the solo just mess around with intro riff.

Thats all. Rock on.

Get this song at:  amazon.com sheetmusicplus.com

Share your thoughts

0 Comments found