The Clash

The Clash - Charlie Don't Surf bass tab

CHARLIE DON'T SURF by THE CLASH. Album: Sandinista!

# intro and chorus #

G:|---7-4------------|

D:|------------------|

A:|-5-------5/9-975--|

E:|------------------|

# verse and chorus #

G:|-------------------------------------------------|

D:|-------------------------------------------------|

A:|-55-050-22-0---55-050-22-0---55-0567/------------|

E:|------------2-------------2------------0--22-22--|

# chorus2 # 02:32

G:|-----------------------------------------------------------|

D:|-----------------------------------------------------------|

A:|-55-050-22-0---55-050-22-0---55-0567/----------------------|

E:|------------2-------------2------------0--2-2-222-22-2-22--|

# outro1 # 03:15

G:|---------------|

D:|---------------|

A:|-55-555-55-55--|

E:|---------------|

# outro2 # 3:37

G:|-------------------|

D:|-------------------|

A:|--555555555555555--|

E:|-------------------|

Tabbed by Paukovics Gergő 2003.07.07. n-o-f-x@freemail.hu

Taken from The BassMasta -- http://www.tabs-database.com

Get this song at:  amazon.com sheetmusicplus.com

Share your thoughts

0 Comments found