The Clash

The Clash - Career Oppertunities bass tab

G|INTRO----------------------------------------------------------------------|

D|---------------------------------------------------------------------------|

A|---------------------------------------------------------------------------|

E|---55555-0-55555-0---------------------------------------------------------|

G|VERSE----------------------------------------------------------------------|

D|------------------4--------------------------------------------------------|

A|--------4--5-55545--7-77754------------------------------------------------|

E|---5-555-5-----------------5-55-5-55---------------------------------------|

G|PRE-CHORUS-----------------------------------------------------------------|

D|----------------------------------------------446677-----------------------|

A|----5-4-2-05-54-2-0-5-4-2-05-54-2-0-2244556677-----------------------------|

E|---------------------------------------------------------------------------|

G|CHORUS---------------------------------------------------------------------|

D|---------------------------------------------------------------------------|

A|----------------5-5--------------------------------------------------------|

E|----55--0---2--------------------------------------------------------------|

G|MIDDLE 8-------------------------------------------------------------------|

D|---------------------------------------------------------------------------|

A|---------------3-33------------3-33------------3-3335555555577777542-------|

E|----5-553-335-------5-553-335-------5-553-335------------------------------|

G|OUTRO----------------------------------------------------------------------|

D|---------------------------------------------------------------------------|

A|----------------5-55-------------------------------------------------------|

E|----5-550-002-22-----------------------------------------------------------|

Get this song at:  amazon.com sheetmusicplus.com

Share your thoughts

0 Comments found