The Clash

The Clash - Armagideon Time guitar tab

Here's one of my Clash guitar favorites. As always comments

welcome and encouraged.

Armagideon Time

The Clash

Album: Black Market Clash EP

chords

Bm F#m7

2--------2---------------------------------------

3--------2---------------------------------------

4--------2---------------------------------------

4--------2---------------------------------------

3--------4---------------------------------------

---------2---------------------------------------

Intro Riff

------------------------------------------------

3--3------5--5------3--3-------5--5-------------

4--4-4----6--6-6----4--4-4-----6--6-6------------

------------------------------------------------

------------------------------------------------

------------------------------------------------

Intro words:

Stay around don't play around

This old town and all

Seems like I got to travel on

Main Riff

------------------------------------------------

------------------------------------------------

--4----------------4-----------7-6-4-6-4---4----

----4-6-7-6-4--------4-6-7-7-------------7------

--------------5---------------------------------

------------------------------------------------

Bm F#m7 Bm F#m7

A lot of people won't get no supper tonight

Bm F#m7 Bm F#m7

A lot of people won't get no justice tonight

Bm F#m7 Bm F#m7

The battle is gettin hotter

Bm F#m7 Bm F#m7

In this iration, Armegideon time

A lot of people runnin and a hiding tonight

A lot of people won't get no justice tonight

Remember to kick it over

No one will guide you - Armegideon time

Ad lib vocals

Get this song at:  amazon.com sheetmusicplus.com

Share your thoughts

0 Comments found