The Clash

The Clash - Armagedeon Time guitar tab

Bm F#m72--------2---------------------------------------

3--------2---------------------------------------

4--------2---------------------------------------

4--------2---------------------------------------

3--------4---------------------------------------

---------2---------------------------------------

Intro Riff

------------------------------------------------

3--3------5--5------3--3-------5--5-------------

4--4-4----6--6-6----4--4-4-----6--6-6-----------

------------------------------------------------

------------------------------------------------

------------------------------------------------

Main Riff------------------------------------------------

------------------------------------------------

--4----------------4-----------7-6-4-6-4---4----

----4-6-7-6-4--------4-6-7-7-------------7------

--------------5---------------------------------

------------------------------------------------

Get this song at:  amazon.com sheetmusicplus.com

Share your thoughts

0 Comments found