The Clash

The Clash - All The Young Punx guitar tab

E---2/7--7--7--7--7--7-----7--7-----4--2-----4--------4-----------7-----

B-----------------------------------------4--------------5--2-----------

G-----------------------------------------------------------------------

D-----------------------------------------------------------------------

A-----------------------------------------------------------------------

E-----------------------------------------------------------------------

E---7--7--7--7--7-----7--7-----4--2-----2/7-----------------------------

B------------------------------------4-------7--4--0-----2--4--5--7-----

G-----------------------------------------------------------------------

D-----------------------------------------------------------------------

A-----------------------------------------------------------------------

E-----------------------------------------------------------------------

E-----------------------------------------------------------------------

B---------7--7--7h9-----7--5--4-----5--4-----0-----7h9-----7p5-----4----

G-----------------------------------------------------------------------

D-----------------------------------------------------------------------

A-----------------------------------------------------------------------

E-----------------------------------------------------------------------

E---------------9--9--7-----9--9h11--11--------11p9-----7--------4------

B---h5p4----------------------------------------------------------------

G-----------------------------------------------------------------------

D-----------------------------------------------------------------------

A-----------------------------------------------------------------------

E-----------------------------------------------------------------------

E---p7--4-----2--------2--2--------4--4-----2---------------------------

B----------------------4--4--------6--6-----2---------------------------

G----------------------4--4--------6--6-----3---------------------------

D----------------------4--4--------6--6-----4---------------------------

A----------------------2--2--------4--4-----4---------------------------

E----------------------2--2--------4--4-----2--------------------------

Get this song at:  amazon.com sheetmusicplus.com

Share your thoughts

0 Comments found