The Clash

The Clash - 48 Hours bass tab

Artist: The Clash

Tab: 48 hours

intro/verse("friday or saturday....")

|---------------|

|---------------|

|-7~-9~---7~-9~-|

|---------------|

("mondays coming like a jail on wheels....")

before the Chorus

|----------------------------------|

|----------------------------------|

|-3-3-3-3-3-3-3-3--5-5-5-5-5-5-5-5-|

|----------------------------------|

Chorus("forty eight hours needs a forty......")

|--------------------------------|

|--------------------------------|

|-----------------5-5-5-5--2--0--|

|-3-3-3-3-3-3-3-3----------------|

Chorus end("forty eight thriiiiiiiiiilllllllllllllls....")

|--------------------------------|

|--------------------------------|

|-7-7-7-7-7-7-7-7-7-7-7-7-7......

|--------------------------------|

Solo

|--------------------------|

|----66-77-88-----44-55-66-| 4x

|-77-----------55----------|

|--------------------------|

FIN

Taken from the BassMasta ~ http://www.tabs-database.com

Get this song at:  amazon.com sheetmusicplus.com

Share your thoughts

0 Comments found