The Casualties

The Casualties - Made In N.y.c. guitar tab

P=Pluck

/=Slide

Guitar

Riff A

e|--------4---4---------7-6-4-|

B|--7---7---5---7---7P0-------|

G|----4-----------4-----------|

D|----------------------------|

A|-----�-------�------�-------|

E|----------------------------|

Riff B

e|-2-2222220-0000002-2222224-0-4-0----------------------------------|

B|-0-0000000-0000000-0000000-0-0-0----------------------------------|

G|------------------------------------------------------------------|

D|------------------------------------------------------------------|

A|--------------------------------------------------------�---------|

E|------------------------------------------------------------------|

Repeat Riff B 7 more times

Riff C

e|------------------------------------------------------------------|

B|------------------------------------------------------------------|

G|------------------------------------------------------------------|

D|----------9-9-9999----------7/9-99-7/9-99-------------------------|

A|-9-9-9999-7-7-7777-9-9-9999-5/7-77-5/7-77---------------�---------|

E|-7-7-7777----------7-7-7777---------------------------------------|

e|------------------------------------------------------------------|

B|------------------------------------------------------------------|

G|------------------------------------------------------------------|

D|----------9-9-9999/11-11-11-11-11-11-11-11-9-7-9------------------|

A|-9-9-9999-7-7-7777/-9--9--9--9--9--9--9--9-7-5-7------------------|

E|-7-7-7777---------------------------------------------------------|

Riff D

e|------------------------------------------------------------------|

B|------------------------------------------------------------------|

G|------------------------------------------------------------------|

D|----------9-9-9999----------7/9-99-7/9-99-------------------------|

A|-9-9-9999-7-7-7777-9-9-9999-5/7-77-5/7-77---------------�---------|

E|-7-7-7777----------7-7-7777---------------------------------------|

e|------------------------------------------------------------------|

B|------------------------------------------------------------------|

G|------------------------------------------------------------------|

D|----------9-9-9999-7-7-7777-11-11-11111111------------------------|

A|-9-9-9999-7-7-7777-5-5-5555--9--9--9-9-9-9------------�-----------|

E|-7-7-7777---------------------------------------------------------|

Repeat Riff C and then D Then play and hold�

A|-9-|

E|-7-|

Hold it till he says 1, 2, 3, 4. Then play...

Riff E

e|--------------------------------------------------------------------|

B|--------------------------------------------------------------------|

G|--------------------------------------------------------------------|

D|-9-7-9-7----------9-7-9-7-1111111111111111--------------------------|

A|-7-5-7-5-77777777-7-5-7-5--9-9-9-9-9-9-9-9--------------�-----------|

E|---------99999999---------------------------------------------------|

Repeat Riff E

Riff H

e|--------------------------------------------------------------------|

B|--------------------------------------------------------------------|

G|--------------------------------------------------------------------|

D|------9-11--------11-9-------9999------11111111---------------------|

A|-9999-7--9---9999--9-7--9999-7777-7777--9-9-9-9---------------------|

E|-7777--------7777-------7777------5555------------------------------|

Repeat Riff H Then play...

Riff E

Riff E

Riff H

Riff H

Then play and hold...

A|-9-|

E|-7-|

Get this song at:  amazon.com sheetmusicplus.com

Share your thoughts

Comments