The Casualties

The Casualties - Die Hards guitar tab

Die Hards - The Casualties

Fill

e|-------------------|

B|-------------------|

G|-------------------|

D|-9-9-5-7-7-6-6-----|

A|-7-7-6-5-5-4-4-2-2-|

E|---------------0-0-|

Main Riff.

e|------------------|

B|------------------|

G|------------------|

D|-7-7-0-7-7--4-3-2-|

A|-5-5-0-5-5--2-1-0-|

E|------------------|

�You know who we are, we�re in �till the end�..�

e|-----------------------------------|

B|-----------------------------------|

G|-----------------------------------|

D|-----------------------------------|

A|-3-3-3-3-3-3-3-3---3-3-3-3-3-3-3-3-|

E|-1-1-1-1-1-1-1-1---3-3-3-3-3-3-3-3-|

�Die Hards! Die Hards!�

e|------------------------------------|

B|------------------------------------|

G|------------------------------------|

D|------------------------------------|

A|-6-6-6-6-6-6-6-6----8-8-8-8-8-8-8-8-|

E|-4-4-4-4-4-4-4-4----6-6-6-6-6-6-6-6-|

�We are punks, we are punks��.solo (tremolo on last note at very end of song)

e|-------------------------------|

B|-------------------------------|

G|-9-9-9--6-6-6--4-4--9-9--6-4-1-|

D|-------------------------------|

A|-------------------------------|

E|-------------------------------|

simple, no?

Get this song at:  amazon.com sheetmusicplus.com

Share your thoughts

Comments