The Casualties

The Casualties - 40 Oz Casualtie guitar tab

Bad ass fuckin song

(>)=Pickslide

Intro

E -----------------------|

B -----------------------|

G --66-55----------------|

D --66-55-55-77----------|

A --44-77-55-77----------|

E --------77-99----------| Do it 5 times then go into:

E --------------------------------|

B --------------------------------|

G --77----------66-77-------------|

D --77-77-9-7---66-77-7-7-7-------|

A --55-77-9-7---44-55-7-7-7-------|

E -----55-7-5---------5-5-5-------|Do that whole thing 4 times do the, then do it all

again, then the chorus (40 oz 40 oz 40 oz Casualties!) is:

E --------------------------------|

B --------------------------------|

G --666--999-11111-12-11-12-11----|

D --666--999-11111-12-11-12-11----|

A --444--777-9-9-9-10-9--10-9-----|

E --------------------------------| Do this 6 times then go into:

E >--------------------------------|

B >--------------------------------|

G >--77----------66-77-------------|

D >--77-77-9-7---66-77-7-7-7-------|

A >--55-77-9-7---44-55-7-7-7-------|

E >-----55-7-5---------5-5-5-------|, Do this 2 times then go into the intro again and

the end just play it as many times as you want as fast as you can. Bad ass song.

Get this song at:  amazon.com sheetmusicplus.com

Share your thoughts

0 Comments found