The Ataris

The Ataris - The Saddest Song Intro guitar tab

The Saddest Song by Ataris

This is my very first time tabbing so be kind. :) I listened to the other version

of the intro and it doesn't sound like the song at all so i decided to tab my

version(which i think is more accurate).

e|------------------------------------------------------------10h11p10-|

B|10h11p10------------------10h11p10---------13-11------10h11----------|

G|---------10-----12-10--------------10-------------12-----------------|

D|------------12------------------------12-----------------------------|

A|---------------------------------------------------------------------|

E|---------------------------------------------------------------------|

e|----------------------|

B|11-----13-11----------|

G|---12-----------------|

D|-------------10-12h13-|

A|----------------------|

E|----------------------|

thats the intro. sounds pretty good email suggestions and comments to: azn_music_boy@hotmail.com

Get this song at:  amazon.com sheetmusicplus.com

Share your thoughts

0 Comments found