The Ataris

The Ataris - Neilhouse guitar tab

================================================================================

Neilhouse - The*Ataris

================================================================================

By: Josh (synchrony7@hotmail.com)

pm - palm mute

Intro: x2

e|-----------------------------------------------------------------------------|

B|-----------------------------------------------------------------------------|

G|-----------------------------------------------------------------------------|

D|-----------------------------------------------------------------------------|

A|-----------------------------7-5-5--7-5-5------------------------------------|

E|-7-5-5--7-5-5--4-2-2--4-2-2----------------7-7-7-10-9--7---------------------|

Verse:

e|-----------------------------------------------------------------------------|

B|-----------------------------------------------------------------------------|

G|--------------------------------------------------------7-7-7-7-7-7----------|

D|-7-7-7-7-7-7-7-7-7-7-7--4-4-4-4-4-4-4-4-4-4-4-4-4-4-4---7-7-7-7-7-7----------|

A|-7-7-7-7-7-7-7-7-7-7-7--4-4-4-4-4-4-4-4-4-4-4-4-4-4-4---5-5-5-5-5-5----------|

E|-5-5-5-5-5-5-5-5-5-5-5--2-2-2-2-2-2-2-2-2-2-2-2-2-2-2------------------------|

pm..........................................................................

It all started out one day when I had nothing more to say to you

Love is for morons but who's this ***ing idiot that I see

e|-----------------------------------------------------------------------------|

B|-----------------------------------------------------------------------------|

G|-7-7-7-7-7-7-7-7-7-----------------------------------------------------------|

D|-7-7-7-7-7-7-7-7-7-----9-9-9-9-9-12-11-9-------------------------------------|

A|-5-5-5-5-5-5-5-5-5-----9-9-9-9-9-12-11-9-------------------------------------|

E|-----------------------7-7-7-7-7-10-9--7-------------------------------------|

pm......................................

so I ran the other way.

staring right back at me?

Chorus:

e|-----------------------------------------------------------------------------|

B|-----------------------------------------------------------------------------|

G|-----------------------6-7-7-7-----------------------------------------------|

D|-4-4-4-----------------6-7-7-7-----------------------------------------------|

A|-4-4-4-----------------4-5-5-5-----------------------------------------------|

E|-2-2-2-----------------------------------------------------------------------|

Will someone tell me what's right or wrong anymore?

Cause everywhere I go I wonder what I'm searching for.

I think of all the times I thought of you and masturbated.

e|-----------------------------------------------------------------------------|

B|-----------------------------------------------------------------------------|

G|----------------------------------7-7-7-7--9-9-9-9---------------------------|

D|--9-9-9-9-------------------------7-7-7-7--9-9-9-9---------------------------|

A|--9-9-9-9-------------------------5-5-5-5--7-7-7-7---------------------------|

E|--7-7-7-7--------------------------------------------------------------------|

All this preteen *** has got me so frustrated!

e|-----------------------------------------------------------------------------|

B|-----------------------------------------------------------------------------|

G|-----------------------------------------------------------------------------|

D|--7-7-7-7-7----------------------4-4-4-4-4-----------------------------------|

A|--7-7-7-7-7----------------------4-4-4-4-4-----------------------------------|

E|--5-5-5-5-5----------------------2-2-2-2-2-----------------------------------|

Don't turn around cause there's nothing more for you back there.

I'm goin east to say the least to see the Queers, how true

e|-----------------------------------------------------------------------------|

B|-----------------------------------------------------------------------------|

G|-7-7-7-7-7--------------------------------------7-7-7-7-7--------------------|

D|-7-7-7-7-7--------------------9-9-9-9-9---------7-7-7-7-7--------------------|

A|-5-5-5-5-5--------------------9-9-9-9-9---------5-5-5-5-5--------------------|

E|------------------------------7-7-7-7-7--------------------------------------|

I'd send a postcard but it'd say how much that I don't care

I'll be at the Neilhouse but I'll be without you!

Last Part:

e|-----------------------------------------------------------------------------|

B|-----------------------------------------------------------------------------|

G|-------------------------------------------777-7--777-7----------------------|

D|-777-7--777-7--999-9--999-9--555-5--555-5--777-7--777-7----------------------|

A|-777-7--777-7--999-9--999-9--555-5--555-5--555-5--555-5----------------------|

E|-555-5--555-5--777-7--777-7--333-3--333-3------------------------------------|

Play the Last part palm muted once.

Then over with these words:

A B

Don't try to tell me you can't have any fun

G

You played me for a ***ing fool

D

but now you get to be one...don't go!

Then just strum the chords twice.

Intro x2 end on A

Ok that's it, listen to the song if you get confused at the end, its really easy

Any questions, comments, or Ataris tabs can be emailed to us at:

The Complete Ataris Guitar Tablature Archive

http://www.geocities.com/theataris_tabs/index.html

================================================================================

Get this song at:  amazon.com sheetmusicplus.com

Share your thoughts

0 Comments found