The Ataris

The Ataris - Kristines A Punk guitar tab

-------------------------------------------------------------------------------------------------

The * Ataris - Kristine's A Punk

--------------------------------------------------------------------------------------------------

Tabbed By Stewart Watt

E-mail - Fourstarmaryrocks@hotmail.com

Tab Stuff & What It Means

^ - Play Note While Bending Up

^11 - Bend Note Up To the Pitch Of The Next Note (eg.10^11 or 15^16)

x - Mute Note

h - Hammer On

p - Pull Off

` - Bend Down

Vs (Rhythm Not Shown)

A F# G D

e:-----------------------------------------|

B:-----------------------------------------|

G:-----------------------------------7-----|

D:--7----------4----------5----------7-----|

A:--7----------4----------5----------5-----|

E:--5----------2----------3----------------|

Chorus (Rhythm Not Shown)

B C# D B C# A B C# D A E

e:--------------------------------------------------------------------|

B:--------------------------------------------------------------------|

G:---------------7-------------------------------------7-----------9--|

D:--9-----11-----7-----9-----11-----7-----9-----11-----7-----7-----9--|

A:--9-----11-----5-----9-----11-----7-----9-----11-----5-----7-----7--|

E:--7-----9------------7-----9------5-----7-----9------------5--------|

Solo

e:-------------------------------------------------7----------------------9h10x----------------|

B:----55-77----55-77----55-7-10^-10^11-9-10-9-0---7--8-7----7h9-9-7-------------99-9h11-11p9-9-|

G:-77-------77-------55-------------------------8--------88---------9-10`----------------------|

D:---------------------------------------------------------------------------------------------|

A:---------------------------------------------------------------------------------------------|

E:---------------------------------------------------------------------------------------------|

e:-----7-------------------------------------------11-888------14-11-11-11-15^-15^16-13h14-12--|

B:---7---8-7----7h9-9-7-11-11-11-11-11-99999-10h11-------10h11---------------------------------|

G:-8---------88--------------------------------------------------------------------------------|

D:---------------------------------------------------------------------------------------------|

A:---------------------------------------------------------------------------------------------|

E:---------------------------------------------------------------------------------------------|

Thats the whole song i'm not sure if the solo is right but it sounds ok. This is actually a

really good song off the 7" and it's also on the demo Kris recorded and gave to Joe of The

Vandals (it's the tape that got The Ataris signed to Kung Fu Records).So if you can get a hold

of this song you should.

===============================================================================================

Get this song at:  amazon.com sheetmusicplus.com

Share your thoughts

0 Comments found