The Ataris

The Ataris - Boxcar bass tab

Riff#1

E:-3----3----

A:---33---33-

D:-----------

G:-----------

Riff#2

E:-3----------

A:---33-55-33-

D:------------

G:------------

Riff#3

E:-3333-5555-7777-8888-

A:---------------------

D:---------------------

G:---------------------

Riff#4

E:-3333-5555-7777-8888-7----8----

A:-------------------------------

D:-------------------------------

G:-------------------------------

Riff#5

E:-3333-5555-7777-8888-3----5----

A:-------------------------------

D:-------------------------------

G:-------------------------------

Riff#6

E:-5555-3333-

A:-----------

D:-----------

G:-----------

Order

Riff#1 Riff#3 2x Riff#6

Riff#2 Riff#1 Riff#1

Riff#1 Riff#4 Riff#2

Riff#2 Riff#5 Riff#1

Riff#1 (REPEAT ALL) Riff#2

Riff#2 (BREAK)

Last note is 3rd fret-E string let it ring

Taken from The BassMasta -- http://www.tabs-database.com

Get this song at:  amazon.com sheetmusicplus.com

Share your thoughts

0 Comments found