Tears for Fears

Tears for Fears - Shout bass tab

Song: Shout

Artist: Tears for Fears

r = rest

  Shout, shout...  These are the... Come on...  

   G               Eb                C           G

G:-------------------------------------------------------------

D:-----------------1-------------------------------------------

A:-----------------------------------3-------------------------

E:-3---------------------------------------------3-------------

Verse:

  In modern times...

  Bb                 C

G:-------------------------------|

D:-------------------------------| -repeat 3 more times-

A:-1-1--1-1-1--------3-3--3-3-3--|

E:-------------------------------|

Chorus:

   Shout, shout...

   G                 Eb                C                

G:-------------------------------------------------------------

D:-------------------1111111r-1111111r-------------------------

A:-------------------------------------3333333r-3333333r-------

E:-3333333r-3333333r-------------------------------------------

   G

G:-------------------------|

D:-------------------------|

A:-------------------------|

E:-33333333r--33333333r----|

-repeat verse-

-repeat chorus 2 times-

Breakdown

   C               G

G:--0--------------0-------------------------------------------

D:-------------------------------------------------------------

A:--3----------------------------------------------------------

E:-----------------3-------------------------------------------

Bass solo:

   G

G:-------------------------------------------------------------

D:-5-r----3---5------------3-5---3---3-5-----------------------

A:------5---5----------3-5---------5---------------------------

E:-------------3-----3---------3---------3---------------------

   G

G:-------------------------------------------------------------

D:-5-r----3---5------------3---5-------------------------------

A:------5---5------------5---5---5-----------------------------

E:-------------r---333-------------3---3-----------------------

-repeat verse and chorus as needed-

Transcribed by Christopher Funicelli

Comments or suggestions, please email me at cfunz@aol.com

Get this song at:  amazon.com sheetmusicplus.com

Share your thoughts

0 Comments found