Tears for Fears

Tears for Fears - Mad World guitar chord

#-----------------------------PLEASE NOTE-------------------------------------#

#This OLGA file is the author's own work and represents their interpretation #

#of the song. You may only use this file for private study, scholarship, or #

#research. Remember to view this file in Courier, or some other monospaced #

#font. See http://www.olga.net/faq/ for more information. #

#-----------------------------------------------------------------------------#

Subject: t/tears_for_fears/mad_world.tab

"Mad World" - Tears for Fears

transcribed by John

Comments to: Devilhouse@btinternet.com

As close as I could get it to the piano version.

My First attempt at a tab so any ideas or comments would be welcome.

 

Intro:

e|---8------------------------8------------------------------|

B|-9---8-9----8-------6---6-9---8-9----8-9-11-----11------11-|

G|---------10---8-7---7---7---------10---------10------10----|

D|------------------8---8--------------------8-------8-------|

A|-----------------------------------------------------------|

E|-----------------------------------------------------------|

 

Verse:

Repeat four times

     All around me....                                      

e|-----------------------------------------------|

B|---9----9-----13----13-------------------------|

G|---10---10----13----13----12----12----15----15-|

D|--------------------------13----13----15----15-|

A|-8----8----11----11----------------13----13----|

E|-----------------------11----11----------------|

 

Chrous:

Repeat four times

     And I find it...

e|-----------------------|

B|---9----9-----15----15-|

G|---10---10----15----15-|

D|-----------------------|

A|-8----8----13----13----|

E|-----------------------|

 

           Mad World...

e|---8------------------------8------------------------------|

B|-9---8-9----8-------6---6-9---8-9----8-9-11-----11------11-|

G|---------10---8-7---7---7---------10---------10------10----|

D|------------------8---8--------------------8-------8-------|

A|-----------------------------------------------------------|

E|-----------------------------------------------------------|

 

Verse:

Repeat four times

     Children waiting....

e|-----------------------------------------------|

B|---9----9-----13----13-------------------------|

G|---10---10----13----13----12----12----15----15-|

D|--------------------------13----13----15----15-|

A|-8----8----11----11----------------13----13----|

E|-----------------------11----11----------------|

 

Chrous:

Repeat four times

     And I find it...

e|-----------------------|

B|---9----9-----15----15-|

G|---10---10----15----15-|

D|-----------------------|

A|-8----8----13----13----|

E|-----------------------|

 

Outro:

           Mad World...

e|---8------------------------8------------------------------|

B|-9---8-9----8-------6---8-9---8-9----8-9-11-----11------11-|

G|---------10---8-7---7-------------10---------10------10----|

D|------------------8---8--------------------8-------8-------|

A|-----------------------------------------------------------|

E|-----------------------------------------------------------|

    Enlarging your world...

e|---8------------------------------------------|

B|-9---8-9----8-------6---6-9-9-8-8----8-9-11---|

G|---------10---8-7---7---7---------10----------|

D|------------------8---8---------------------8-|

A|----------------------------------------------|

E|----------------------------------------------|

 

Get this song at:  amazon.com sheetmusicplus.com

Share your thoughts

0 Comments found