Tears for Fears

Tears for Fears - Head Over Heels guitar chord

#-----------------------------PLEASE NOTE-------------------------------------#

#This OLGA file is the author's own work and represents their interpretation #

#of the song. You may only use this file for private study, scholarship, or #

#research. Remember to view this file in Courier, or some other monospaced #

#font. See http://www.olga.net/faq/ for more information. #

#-----------------------------------------------------------------------------#

Subject: t/tears_for_fears/head_over_heels.btab

Basstab by Jan Bjorklund, Finland;

jani_bjorklund@yahoo.se

You are welcome to request for basstabs!

Bienvenidos a pedirme transcripciones para el bajo!

Fingering and positions as suggested by TablEdit.

TablEdited by Jan Bjorklund

Tuning : E A D G Time Signature: 4/4

| | | | | | | |

|--------------------------------|--------------------------------|

|5-------------------------------|--------------------------------|

|--------------------------------|--------------------------------|

|--------------------------------|--------------------------------|

| | | | | | | |

|--------------------------------|--------------------------------|

|--------------------------------|--------------------------------|

|5-------------------------------|--------------------------------|

|--------------------------------|--------------------------------|

| | | | | | | |

|--------------------------------|--------------------------------|

|5-------------------------------|--------------------------------|

|--------------------------------|--------------------------------|

|--------------------------------|--------------------------------|

| | | | | | | |

|--------------------------------|--------------------------------|

|--------------------------------|--------------------------------|

|5-------------------------------|--------------------------------|

|--------------------------------|--------------------------------|

| | | | | | | |

|--------------------------------|--------------------------------|

|5-------------------------------|--------------------------------|

|--------------------------------|--------------------------------|

|--------------------------------|--------------------------------|

| | | | | | | |

|--------------------------------|--------------------------------|

|--------------------------------|--------------------------------|

|5-------------------------------|--------------------------------|

|--------------------------------|--------------------------------|

| | | | | | | |

|--------------------------------|0---2---4---0-----------0---2---|

|--------------------2---2-------|----------------2---4-----------|

|0-------2---0---3h4---------4---|--------------------------------|

|--------------------------------|--------------------------------|

| | | | | | | |

|--------------------------------|0-------------------------------|

|--------------------2-----------|--------4-------2---2---2h3p2---|

|0-------2---0---3h4-----0---0---|------------------------------3-|

|--------------------------------|--------------------------------|

| | | | | | | |

|--------------------------------|--------------------------------|

|--------------------2---2h3-----|--------------------------------|

|0-------2---0---4-----------0---|--------2-----------------------|

|--------------------------------|3---5-------3---0---2---3h--5---|

| | | | | | | |

|--------------------------------|--------------------------------|

|--------------------2-----------|5-------4-------2---2-----------|

|0-------2---0---3h4-----0---0---|------------------------4h5-3---|

|--------------------------------|--------------------------------|

| | | | | | | |

|--------------------------------|--------------------------------|

|--------------------2-----------|--------------------------------|

|0-------2---0---3h4-----0---0---|--------2-----------------------|

|--------------------------------|3---5-------3---0---2---3h--5---|

| | | | | | | |

|--------------------------------|--------------------------------|

|--------------------2-----------|5-------4-------2---2---0-------|

|0-------2---0---3h4-----0---0---|--------------------------------|

|--------------------------------|--------------------------------|

| | | | | | | |

|--------------------------------|--------------------------------|

|--------------------2-----------|--------------------------------|

|0-------2---0---3h4-----0---0---|--------2-----------------------|

|--------------------------------|3---5-------3---0---2---3---5---|

| | | | | | | |

|--------------------------------|--------------------------------|

|--------------------2-----------|5-------4-------2---2-----------|

|0-------2---0---3h4-----0---0---|------------------------5---3---|

|--------------------------------|--------------------------------|

| | | | | | | |

|--------------------------------|--------------------------------|

|5-------5-------5---4---2---0---|------------------------0---2---|

|--------------------------------|----------------0---2-----------|

|--------------------------------|0-------2---3-------------------|

| | | | | | | |

|--------------------------------|--------------------------------|

|5-------5-------5---4---2h3-----|--------------------------------|

|----------------------------2---|--------------------------------|

|--------------------------------|0---------------0---0-----------|

| | | | | | | |

|--------------------------------|--------------------------------|

|--------5-------5---4---1h2-----|------------------------0---2---|

|----------------------------2---|----------------0---2-----------|

|3-------------------------------|0-------2---3-------------------|

| | | | | | | |

|--------------------------------|--------------------------------|

|--------------------------------|--------------------------------|

|5-------3-------5---5---4h5-5---|--------------------------------|

|--------------------------------|--------------------------------|

| | | | | | | |

|--------------------------------|--------------------------------|

|--------------------2-----------|--------------------------------|

|0-------2---0---3h4-----0---0---|--------2-----------------------|

|--------------------------------|3---5-------3---0---2---3h--5---|

| | | | | | | |

|--------------------------------|--------------------------------|

|--------------------2-----------|--------------------------------|

|0-------2---0---3h4-----0---0---|----------------------------0---|

|--------------------------------|--------------------------------|

| | | | | | | |

|--------------------------------|--------------------------------|

|--------------------2-----------|--------------------------------|

|--------2---0---3h4-----0---0---|--------2-----------------------|

|--------------------------------|3---5-------3---0---2---3h--5---|

| | | | | | | |

|--------------------------------|--------------------------------|

|--------------------2-----------|5-------4-------2---2-------5---|

|0-------2---0---3h4-----0---0---|------------------------5-------|

|--------------------------------|--------------------------------|

| | | | | | | |

|--------------------------------|--------------------------------|

|--------------------2-----------|--------------------------------|

|0-------2---0---3h4-----0---0---|--------2-----------------------|

|--------------------------------|3---5-------3---0---2---3h--5---|

| | | | | | | |

|--------------------------------|--------------------------------|

|--------------------2-----------|5-------4-------2---2-----------|

|0-------2---0---3h4-----0---0---|------------------------5---3---|

|--------------------------------|--------------------------------|

| | | | | | | |

|--------------------------------|--------------------------------|

|--------------------2-----------|--------------------------------|

|0-------2---0---3h4-----0---0---|--------2-----------------------|

|--------------------------------|3---5-------3---0---2---3h--5---|

| | | | | | | |

|--------------------------------|--------------------------------|

|--------------------2-----------|--------------------------------|

|0-------2---0---3h4-----0---0---|------------------------5-------|

|--------------------------------|3-------2-------0---0-----------|

| | | | | | | |

|--------------------------------|--------------------------------|

|--------------------2-----------|--------------------------------|

|0-------2---0---3h4-----0-------|--------2-----------------------|

|--------------------------------|3---5-------3---0---2---3h--5---|

| | | | | | | |

|--------------------------------|--------------------------------|

|--------------------2-----------|5-------4-------2---2-----------|

|0-------2---0---3h4-----0---0---|------------------------5---3---|

|--------------------------------|--------------------------------|

| | | | | | | |

|--------------------------------|--------------------------------|

|5-------5-------5---4---2h3-----|------------------------0---2---|

|----------------------------2---|----------------0---2-----------|

|--------------------------------|0-------2---3-------------------|

| | | | | | | |

|--------------------------------|--------------------------------|

|5---------------5---4---2-------|--------------------------------|

|----------------------------2---|--------------------------------|

|--------------------------------|0---------------0---0---0-------|

| | | | | | | |

|--------------------------------|--------------------------------|

|----------------5---4---2-------|------------------------0---2---|

|----------------------------2---|----------------0---2-----------|

|3-------------------------------|0-------2---3-------------------|

| | | | | | | |

|--------------------------------|--------------------------------|

|--------------------------------|--------------------------------|

|--------------------------------|--------------------------------|

|--------------------------------|--------------------------------|

| | | | | | | |

|--------------------------------|--------------------------------|

|--------------------------------|--------------------------------|

|--------------------------------|--------------------------------|

|--------------------------------|--------------------------------|

| | | | | | | |

|--------------------------------|--------------------------------|

|--------2/--5-------4---2p--0---|--------2/--5-------4---2p--0---|

|3-------------------------------|3-------------------------------|

|--------------------------------|--------------------------------|

| | | | | | | |

|--------------------------------|--------------------------------|

|--------2/--5-------4---2p--0---|--------2/--5-------4---2p--0---|

|5-------------------------------|5-------------------------------|

|--------------------------------|--------------------------------|

| | | | | | | |

|--------------------------------|--------------------------------|

|--------2/--5-------4---2p--0---|--------2/--5-------4---2p--0---|

|3-------------------------------|3-------------------------------|

|--------------------------------|--------------------------------|

| | | | | | | |

|--------------------------------|--------------------------------|

|--------2/--5-------4---2p--0---|----2/--5---4---2---------------|

|5-------------------------------|--------------------3/5-5-5-5---|

|--------------------------------|--------------------------------|

| | | | | | | |

|--------------------------------|--------------------------------|

|--------2/--5-------4---2p--0---|--------2/--5-------4---2p--0---|

|3-------------------------------|3-------------------------------|

|--------------------------------|--------------------------------|

| | | | | | | |

|--------------------------------|--------------------------------|

|--------2/--5-------4---2p--0---|--------2/--5-------4---2p--0---|

|5-------------------------------|5-------------------------------|

|--------------------------------|--------------------------------|

| | | | | | | |

|--------------------------------|--------------------------------|

|--------2/--5-------4---2p--0---|--------2/--5-------4---2p--0---|

|3-------------------------------|3-------------------------------|

|--------------------------------|--------------------------------|

| | | | | | | |

|--------------------------------|--------------------------------|

|--------2/--5-------4---2p--0---|----2/--5-----------2/--5-------|

|5-------------------------------|--------------------------------|

|--------------------------------|--------------------------------|

| | | | | | | |

|--------------------------------|--------------------------------|

|--------2/--5-------4---2p--0---|--------2/--5-------4---2p--0---|

|3-------------------------------|3-------------------------------|

|--------------------------------|--------------------------------|

| | | | | | | |

|--------------------------------|--------------------------------|

|--------2/--5-------4---2p--0---|--------2/--5-------4---2p--0---|

|5-------------------------------|5-------------------------------|

|--------------------------------|--------------------------------|

| | | | | | | |

|--------------------------------|--------------------------------|

|--------2/--5-------4---2p--0---|--------2/--5-------4---2p--0---|

|3-------------------------------|3-------------------------------|

|--------------------------------|--------------------------------|

| | | | | | | |

|--------------------------------|--------------------------------|

|--------2/--5-------4---2p--0---|--------2/--5-------4---2p--0---|

|5-------------------------------|5-------------------------------|

|--------------------------------|--------------------------------|

| | | | | | | |

|--------------------------------|--------------------------------|

|--------2/--5-------4---2p--0---|--------2/--5-------4---2p--0---|

|3-------------------------------|3-------------------------------|

|--------------------------------|--------------------------------|

| | | | | | | |

|--------------------------------|--------------------------------|

|--------2/--5-------4---2p--0---|--------2/--5-------4---2p--0---|

|5-------------------------------|5-------------------------------|

|--------------------------------|--------------------------------|

| | | | | | | |

|--------------------------------|--------------------------------|

|--------2/--5-------4---2p--0---|--------2/--5-------4---2p--0---|

|3-------------------------------|3-------------------------------|

|--------------------------------|--------------------------------|

| | | |

|--------------------------------|

|--------------------------------|

|5-------------------------------|

|--------------------------------|

Created with TablEdit http://www.tabledit.com/

Get this song at:  amazon.com sheetmusicplus.com

Share your thoughts

0 Comments found