System of a Down

System of a Down - D devil bass tab

TABBED BY:MIKKO PUHAKKA

Intro (pt1)

F---------------------

C--4-6-4-5-4-666-5----

G---------------------

C---------------------

Intro (pt2)/Heavy Part

F-----------------------

C-----------------------

G-----------------------

C---4-6-4-5-4-666-5-----

Verse

G-------

C-------

F-------

C--8-7--

Chorus

F------------------------------------------------------------------------

C------------------------------------------------------------------------

G------------------------------------------------------------------------

C--5--4--6--5---666-5-666-5--6--5--666--5--666--5--6--5--666-5-666-5--6-5

Verse

Chorus

Bridge (play this part 4x, but you need to have the correct timing on it)

F-----------

C-----------

G-----------

C--4-666-5--

Verse

Chorus

Heavy Part 8x

Get this song at:  amazon.com sheetmusicplus.com

Share your thoughts

0 Comments found